0
SECTION
2
HEADER
9
$ACADVER
1
AC1008
9
$UCSORG
10
0.0
20
0.0
30
0.0
9
$UCSXDIR
10
1.0
20
0.0
30
0.0
9
$TILEMODE
70
1
9
$UCSYDIR
10
0.0
20
1.0
30
0.0
9
$EXTMIN
10
0.000000
20
-49.917763
30
0.000000
9
$EXTMAX
10
344.005035
20
264.398956
30
224.341339
0
ENDSEC
0
SECTION
2
TABLES
0
TABLE
2
LTYPE
70
1
0
LTYPE
2
CONTINUOUS
70
64
3
Solid line
72
65
73
0
40
0.0
0
ENDTAB
0
TABLE
2
LAYER
70
13
0
LAYER
2
PAPER1
70
0
62
1
6
CONTINUOUS
0
LAYER
2
PAPER02
70
0
62
2
6
CONTINUOUS
0
LAYER
2
PAPER03
70
0
62
3
6
CONTINUOUS
0
LAYER
2
SHELF
70
0
62
4
6
CONTINUOUS
0
LAYER
2
BOOKS
70
0
62
5
6
CONTINUOUS
0
LAYER
2
PICTURE
70
0
62
6
6
CONTINUOUS
0
LAYER
2
FLOOR
70
0
62
7
6
CONTINUOUS
0
LAYER
2
WALLS
70
0
62
8
6
CONTINUOUS
0
LAYER
2
TABLE
70
0
62
9
6
CONTINUOUS
0
LAYER
2
CHAIR
70
0
62
10
6
CONTINUOUS
0
LAYER
2
DESK
70
0
62
12
6
CONTINUOUS
0
LAYER
2
LITESTAN01
70
0
62
15
6
CONTINUOUS
0
LAYER
2
LITE
70
0
62
16
6
CONTINUOUS
0
LAYER
2
0
70
0
62
7
6
CONTINUOUS
0
ENDTAB
0
TABLE
2
STYLE
70
1
0
STYLE
2
STANDARD
70
0
40
0.0
41
1.0
50
0.0
71
0
42
0.2
3
txt
4

0
ENDTAB
0
TABLE
2
UCS
70
0
0
ENDTAB
0
ENDSEC
0
SECTION
2
ENTITIES
0
POLYLINE
8
PAPER1
66
1
70
64
71
4
72
2
0
VERTEX
8
PAPER1
10
149.016510
20
185.687561
30
71.120003
70
192
0
VERTEX
8
PAPER1
10
151.800339
20
213.929138
30
71.120003
70
192
0
VERTEX
8
PAPER1
10
173.220245
20
211.681778
30
71.120003
70
192
0
VERTEX
8
PAPER1
10
170.313049
20
183.590668
30
71.120003
70
192
0
VERTEX
8
PAPER1
10
0
20
0
30
0
70
128
71
3
72
2
73
-1
0
VERTEX
8
PAPER1
10
0
20
0
30
0
70
128
71
4
72
-3
73
1
0
SEQEND
8
PAPER1
0
POLYLINE
8
PAPER02
66
1
70
64
71
4
72
2
0
VERTEX
8
PAPER02
10
172.899216
20
189.524384
30
71.120003
70
192
0
VERTEX
8
PAPER02
10
189.162399
20
212.780457
30
71.120003
70
192
0
VERTEX
8
PAPER02
10
206.734421
20
200.327072
30
71.120003
70
192
0
VERTEX
8
PAPER02
10
190.437424
20
177.262604
30
71.120003
70
192
0
VERTEX
8
PAPER02
10
0
20
0
30
0
70
128
71
3
72
2
73
-1
0
VERTEX
8
PAPER02
10
0
20
0
30
0
70
128
71
4
72
-3
73
1
0
SEQEND
8
PAPER02
0
POLYLINE
8
PAPER03
66
1
70
64
71
4
72
2
0
VERTEX
8
PAPER03
10
224.996521
20
175.870880
30
71.120003
70
192
0
VERTEX
8
PAPER03
10
245.053925
20
195.946655
30
71.120003
70
192
0
VERTEX
8
PAPER03
10
260.194244
20
180.628922
30
71.120003
70
192
0
VERTEX
8
PAPER03
10
240.136841
20
160.747711
30
71.120003
70
192
0
VERTEX
8
PAPER03
10
0
20
0
30
0
70
128
71
3
72
2
73
-1
0
VERTEX
8
PAPER03
10
0
20
0
30
0
70
128
71
4
72
-3
73
1
0
SEQEND
8
PAPER03
0
POLYLINE
8
SHELF
66
1
70
64
71
62
72
108
0
VERTEX
8
SHELF
10
250.609268
20
242.843781
30
119.379997
70
192
0
VERTEX
8
SHELF
10
252.405319
20
241.047729
30
119.379997
70
192
0
VERTEX
8
SHELF
10
252.405319
20
241.047729
30
124.459999
70
192
0
VERTEX
8
SHELF
10
250.609268
20
242.843781
30
124.459999
70
192
0
VERTEX
8
SHELF
10
230.852707
20
219.495117
30
119.379997
70
192
0
VERTEX
8
SHELF
10
230.852707
20
219.495117
30
124.459999
70
192
0
VERTEX
8
SHELF
10
229.056656
20
221.291168
30
119.379997
70
192
0
VERTEX
8
SHELF
10
229.056656
20
221.291168
30
124.459999
70
192
0
VERTEX
8
SHELF
10
298.944031
20
151.403793
30
119.379997
70
192
0
VERTEX
8
SHELF
10
297.147980
20
153.199844
30
119.379997
70
192
0
VERTEX
8
SHELF
10
297.147980
20
153.199844
30
124.459999
70
192
0
VERTEX
8
SHELF
10
298.944031
20
151.403793
30
124.459999
70
192
0
VERTEX
8
SHELF
10
318.700623
20
174.752457
30
119.379997
70
192
0
VERTEX
8
SHELF
10
318.700623
20
174.752457
30
124.459999
70
192
0
VERTEX
8
SHELF
10
320.496674
20
172.956406
30
119.379997
70
192
0
VERTEX
8
SHELF
10
320.496674
20
172.956406
30
124.459999
70
192
0
VERTEX
8
SHELF
10
299.013885
20
148.762146
30
119.379997
70
192
0
VERTEX
8
SHELF
10
299.013885
20
151.302155
30
119.379997
70
192
0
VERTEX
8
SHELF
10
299.013885
20
151.302155
30
124.459999
70
192
0
VERTEX
8
SHELF
10
299.013885
20
148.762146
30
124.459999
70
192
0
VERTEX
8
SHELF
10
329.493866
20
151.302155
30
119.379997
70
192
0
VERTEX
8
SHELF
10
329.493866
20
151.302155
30
124.459999
70
192
0
VERTEX
8
SHELF
10
329.493866
20
148.762146
30
119.379997
70
192
0
VERTEX
8
SHELF
10
329.493866
20
148.762146
30
124.459999
70
192
0
VERTEX
8
SHELF
10
226.518021
20
251.771179
30
119.379997
70
192
0
VERTEX
8
SHELF
10
229.058029
20
251.771179
30
119.379997
70
192
0
VERTEX
8
SHELF
10
229.058029
20
251.771179
30
124.459999
70
192
0
VERTEX
8
SHELF
10
226.518021
20
251.771179
30
124.459999
70
192
0
VERTEX
8
SHELF
10
229.058029
20
221.291168
30
119.379997
70
192
0
VERTEX
8
SHELF
10
229.058029
20
221.291168
30
124.459999
70
192
0
VERTEX
8
SHELF
10
226.518021
20
221.291168
30
119.379997
70
192
0
VERTEX
8
SHELF
10
226.518021
20
221.291168
30
124.459999
70
192
0
VERTEX
8
SHELF
10
57.718811
20
251.771179
30
124.459999
70
192
0
VERTEX
8
SHELF
10
241.681885
20
251.771179
30
124.459999
70
192
0
VERTEX
8
SHELF
10
241.681885
20
251.771179
30
127.000000
70
192
0
VERTEX
8
SHELF
10
57.718811
20
251.771179
30
127.000000
70
192
0
VERTEX
8
SHELF
10
229.056656
20
221.291168
30
127.000000
70
192
0
VERTEX
8
SHELF
10
57.718811
20
221.291168
30
124.459999
70
192
0
VERTEX
8
SHELF
10
57.718811
20
221.291168
30
127.000000
70
192
0
VERTEX
8
SHELF
10
329.424042
20
164.029022
30
124.459999
70
192
0
VERTEX
8
SHELF
10
329.424042
20
164.029022
30
127.000000
70
192
0
VERTEX
8
SHELF
10
298.944031
20
151.403793
30
127.000000
70
192
0
VERTEX
8
SHELF
10
329.424042
20
71.505943
30
124.459999
70
192
0
VERTEX
8
SHELF
10
329.424042
20
71.505943
30
127.000000
70
192
0
VERTEX
8
SHELF
10
298.944031
20
71.505943
30
124.459999
70
192
0
VERTEX
8
SHELF
10
298.944031
20
71.505943
30
127.000000
70
192
0
VERTEX
8
SHELF
10
299.013885
20
71.486351
30
119.379997
70
192
0
VERTEX
8
SHELF
10
299.013885
20
74.026344
30
119.379997
70
192
0
VERTEX
8
SHELF
10
299.013885
20
74.026344
30
124.459999
70
192
0
VERTEX
8
SHELF
10
299.013885
20
71.486351
30
124.459999
70
192
0
VERTEX
8
SHELF
10
329.493866
20
74.026344
30
119.379997
70
192
0
VERTEX
8
SHELF
10
329.493866
20
74.026344
30
124.459999
70
192
0
VERTEX
8
SHELF
10
329.493866
20
71.486351
30
119.379997
70
192
0
VERTEX
8
SHELF
10
329.493866
20
71.486351
30
124.459999
70
192
0
VERTEX
8
SHELF
10
57.668549
20
251.771179
30
119.379997
70
192
0
VERTEX
8
SHELF
10
60.208542
20
251.771179
30
119.379997
70
192
0
VERTEX
8
SHELF
10
60.208542
20
251.771179
30
124.459999
70
192
0
VERTEX
8
SHELF
10
57.668549
20
251.771179
30
124.459999
70
192
0
VERTEX
8
SHELF
10
60.208542
20
221.291168
30
119.379997
70
192
0
VERTEX
8
SHELF
10
60.208542
20
221.291168
30
124.459999
70
192
0
VERTEX
8
SHELF
10
57.668549
20
221.291168
30
119.379997
70
192
0
VERTEX
8
SHELF
10
57.668549
20
221.291168
30
124.459999
70
192
0
VERTEX
8
SHELF
10
0
20
0
30
0
70
128
71
1
72
2
73
-3
0
VERTEX
8
SHELF
10
0
20
0
30
0
70
128
71
-1
72
3
73
4
0
VERTEX
8
SHELF
10
0
20
0
30
0
70
128
71
2
72
5
73
-6
0
VERTEX
8
SHELF
10
0
20
0
30
0
70
128
71
-2
72
6
73
3
0
VERTEX
8
SHELF
10
0
20
0
30
0
70
128
71
5
72
7
73
-8
0
VERTEX
8
SHELF
10
0
20
0
30
0
70
128
71
-5
72
8
73
6
0
VERTEX
8
SHELF
10
0
20
0
30
0
70
128
71
7
72
1
73
-4
0
VERTEX
8
SHELF
10
0
20
0
30
0
70
128
71
-7
72
4
73
8
0
VERTEX
8
SHELF
10
0
20
0
30
0
70
128
71
4
72
3
73
-6
0
VERTEX
8
SHELF
10
0
20
0
30
0
70
128
71
-4
72
6
73
8
0
VERTEX
8
SHELF
10
0
20
0
30
0
70
128
71
5
72
2
73
-1
0
VERTEX
8
SHELF
10
0
20
0
30
0
70
128
71
7
72
-5
73
1
0
VERTEX
8
SHELF
10
0
20
0
30
0
70
128
71
11
72
10
73
-9
0
VERTEX
8
SHELF
10
0
20
0
30
0
70
128
71
12
72
-11
73
9
0
VERTEX
8
SHELF
10
0
20
0
30
0
70
128
71
14
72
13
73
-10
0
VERTEX
8
SHELF
10
0
20
0
30
0
70
128
71
11
72
-14
73
10
0
VERTEX
8
SHELF
10
0
20
0
30
0
70
128
71
16
72
15
73
-13
0
VERTEX
8
SHELF
10
0
20
0
30
0
70
128
71
14
72
-16
73
13
0
VERTEX
8
SHELF
10
0
20
0
30
0
70
128
71
12
72
9
73
-15
0
VERTEX
8
SHELF
10
0
20
0
30
0
70
128
71
16
72
-12
73
15
0
VERTEX
8
SHELF
10
0
20
0
30
0
70
128
71
14
72
11
73
-12
0
VERTEX
8
SHELF
10
0
20
0
30
0
70
128
71
16
72
-14
73
12
0
VERTEX
8
SHELF
10
0
20
0
30
0
70
128
71
9
72
10
73
-13
0
VERTEX
8
SHELF
10
0
20
0
30
0
70
128
71
-9
72
13
73
15
0
VERTEX
8
SHELF
10
0
20
0
30
0
70
128
71
19
72
18
73
-17
0
VERTEX
8
SHELF
10
0
20
0
30
0
70
128
71
20
72
-19
73
17
0
VERTEX
8
SHELF
10
0
20
0
30
0
70
128
71
22
72
21
73
-18
0
VERTEX
8
SHELF
10
0
20
0
30
0
70
128
71
19
72
-22
73
18
0
VERTEX
8
SHELF
10
0
20
0
30
0
70
128
71
24
72
23
73
-21
0
VERTEX
8
SHELF
10
0
20
0
30
0
70
128
71
22
72
-24
73
21
0
VERTEX
8
SHELF
10
0
20
0
30
0
70
128
71
20
72
17
73
-23
0
VERTEX
8
SHELF
10
0
20
0
30
0
70
128
71
24
72
-20
73
23
0
VERTEX
8
SHELF
10
0
20
0
30
0
70
128
71
22
72
19
73
-20
0
VERTEX
8
SHELF
10
0
20
0
30
0
70
128
71
24
72
-22
73
20
0
VERTEX
8
SHELF
10
0
20
0
30
0
70
128
71
17
72
18
73
-21
0
VERTEX
8
SHELF
10
0
20
0
30
0
70
128
71
-17
72
21
73
23
0
VERTEX
8
SHELF
10
0
20
0
30
0
70
128
71
27
72
26
73
-25
0
VERTEX
8
SHELF
10
0
20
0
30
0
70
128
71
28
72
-27
73
25
0
VERTEX
8
SHELF
10
0
20
0
30
0
70
128
71
30
72
29
73
-26
0
VERTEX
8
SHELF
10
0
20
0
30
0
70
128
71
27
72
-30
73
26
0
VERTEX
8
SHELF
10
0
20
0
30
0
70
128
71
32
72
31
73
-29
0
VERTEX
8
SHELF
10
0
20
0
30
0
70
128
71
30
72
-32
73
29
0
VERTEX
8
SHELF
10
0
20
0
30
0
70
128
71
28
72
25
73
-31
0
VERTEX
8
SHELF
10
0
20
0
30
0
70
128
71
32
72
-28
73
31
0
VERTEX
8
SHELF
10
0
20
0
30
0
70
128
71
30
72
27
73
-28
0
VERTEX
8
SHELF
10
0
20
0
30
0
70
128
71
32
72
-30
73
28
0
VERTEX
8
SHELF
10
0
20
0
30
0
70
128
71
25
72
26
73
-29
0
VERTEX
8
SHELF
10
0
20
0
30
0
70
128
71
-25
72
29
73
31
0
VERTEX
8
SHELF
10
0
20
0
30
0
70
128
71
35
72
34
73
-33
0
VERTEX
8
SHELF
10
0
20
0
30
0
70
128
71
36
72
-35
73
33
0
VERTEX
8
SHELF
10
0
20
0
30
0
70
128
71
34
72
8
73
-37
0
VERTEX
8
SHELF
10
0
20
0
30
0
70
128
71
-34
72
37
73
35
0
VERTEX
8
SHELF
10
0
20
0
30
0
70
128
71
39
72
38
73
-8
0
VERTEX
8
SHELF
10
0
20
0
30
0
70
128
71
37
72
-39
73
8
0
VERTEX
8
SHELF
10
0
20
0
30
0
70
128
71
36
72
33
73
-38
0
VERTEX
8
SHELF
10
0
20
0
30
0
70
128
71
39
72
-36
73
38
0
VERTEX
8
SHELF
10
0
20
0
30
0
70
128
71
37
72
35
73
-36
0
VERTEX
8
SHELF
10
0
20
0
30
0
70
128
71
39
72
-37
73
36
0
VERTEX
8
SHELF
10
0
20
0
30
0
70
128
71
33
72
34
73
-8
0
VERTEX
8
SHELF
10
0
20
0
30
0
70
128
71
-33
72
8
73
38
0
VERTEX
8
SHELF
10
0
20
0
30
0
70
128
71
41
72
40
73
-34
0
VERTEX
8
SHELF
10
0
20
0
30
0
70
128
71
35
72
-41
73
34
0
VERTEX
8
SHELF
10
0
20
0
30
0
70
128
71
40
72
12
73
-42
0
VERTEX
8
SHELF
10
0
20
0
30
0
70
128
71
-40
72
42
73
41
0
VERTEX
8
SHELF
10
0
20
0
30
0
70
128
71
37
72
8
73
-12
0
VERTEX
8
SHELF
10
0
20
0
30
0
70
128
71
42
72
-37
73
12
0
VERTEX
8
SHELF
10
0
20
0
30
0
70
128
71
8
72
34
73
-35
0
VERTEX
8
SHELF
10
0
20
0
30
0
70
128
71
-8
72
35
73
37
0
VERTEX
8
SHELF
10
0
20
0
30
0
70
128
71
42
72
41
73
-35
0
VERTEX
8
SHELF
10
0
20
0
30
0
70
128
71
37
72
-42
73
35
0
VERTEX
8
SHELF
10
0
20
0
30
0
70
128
71
34
72
40
73
-12
0
VERTEX
8
SHELF
10
0
20
0
30
0
70
128
71
-34
72
12
73
8
0
VERTEX
8
SHELF
10
0
20
0
30
0
70
128
71
44
72
43
73
-40
0
VERTEX
8
SHELF
10
0
20
0
30
0
70
128
71
41
72
-44
73
40
0
VERTEX
8
SHELF
10
0
20
0
30
0
70
128
71
46
72
45
73
-43
0
VERTEX
8
SHELF
10
0
20
0
30
0
70
128
71
44
72
-46
73
43
0
VERTEX
8
SHELF
10
0
20
0
30
0
70
128
71
42
72
12
73
-45
0
VERTEX
8
SHELF
10
0
20
0
30
0
70
128
71
46
72
-42
73
45
0
VERTEX
8
SHELF
10
0
20
0
30
0
70
128
71
12
72
40
73
-41
0
VERTEX
8
SHELF
10
0
20
0
30
0
70
128
71
-12
72
41
73
42
0
VERTEX
8
SHELF
10
0
20
0
30
0
70
128
71
46
72
44
73
-41
0
VERTEX
8
SHELF
10
0
20
0
30
0
70
128
71
42
72
-46
73
41
0
VERTEX
8
SHELF
10
0
20
0
30
0
70
128
71
40
72
43
73
-45
0
VERTEX
8
SHELF
10
0
20
0
30
0
70
128
71
-40
72
45
73
12
0
VERTEX
8
SHELF
10
0
20
0
30
0
70
128
71
49
72
48
73
-47
0
VERTEX
8
SHELF
10
0
20
0
30
0
70
128
71
50
72
-49
73
47
0
VERTEX
8
SHELF
10
0
20
0
30
0
70
128
71
52
72
51
73
-48
0
VERTEX
8
SHELF
10
0
20
0
30
0
70
128
71
49
72
-52
73
48
0
VERTEX
8
SHELF
10
0
20
0
30
0
70
128
71
54
72
53
73
-51
0
VERTEX
8
SHELF
10
0
20
0
30
0
70
128
71
52
72
-54
73
51
0
VERTEX
8
SHELF
10
0
20
0
30
0
70
128
71
50
72
47
73
-53
0
VERTEX
8
SHELF
10
0
20
0
30
0
70
128
71
54
72
-50
73
53
0
VERTEX
8
SHELF
10
0
20
0
30
0
70
128
71
52
72
49
73
-50
0
VERTEX
8
SHELF
10
0
20
0
30
0
70
128
71
54
72
-52
73
50
0
VERTEX
8
SHELF
10
0
20
0
30
0
70
128
71
47
72
48
73
-51
0
VERTEX
8
SHELF
10
0
20
0
30
0
70
128
71
-47
72
51
73
53
0
VERTEX
8
SHELF
10
0
20
0
30
0
70
128
71
57
72
56
73
-55
0
VERTEX
8
SHELF
10
0
20
0
30
0
70
128
71
58
72
-57
73
55
0
VERTEX
8
SHELF
10
0
20
0
30
0
70
128
71
60
72
59
73
-56
0
VERTEX
8
SHELF
10
0
20
0
30
0
70
128
71
57
72
-60
73
56
0
VERTEX
8
SHELF
10
0
20
0
30
0
70
128
71
62
72
61
73
-59
0
VERTEX
8
SHELF
10
0
20
0
30
0
70
128
71
60
72
-62
73
59
0
VERTEX
8
SHELF
10
0
20
0
30
0
70
128
71
58
72
55
73
-61
0
VERTEX
8
SHELF
10
0
20
0
30
0
70
128
71
62
72
-58
73
61
0
VERTEX
8
SHELF
10
0
20
0
30
0
70
128
71
60
72
57
73
-58
0
VERTEX
8
SHELF
10
0
20
0
30
0
70
128
71
62
72
-60
73
58
0
VERTEX
8
SHELF
10
0
20
0
30
0
70
128
71
55
72
56
73
-59
0
VERTEX
8
SHELF
10
0
20
0
30
0
70
128
71
-55
72
59
73
61
0
SEQEND
8
SHELF
0
POLYLINE
8
BOOKS
66
1
70
64
71
80
72
72
0
VERTEX
8
BOOKS
10
106.785103
20
216.614868
30
151.764999
70
192
0
VERTEX
8
BOOKS
10
99.666588
20
250.744705
30
151.764999
70
192
0
VERTEX
8
BOOKS
10
102.910103
20
251.519730
30
151.764999
70
192
0
VERTEX
8
BOOKS
10
110.229538
20
217.246368
30
151.764999
70
192
0
VERTEX
8
BOOKS
10
95.648071
20
216.098190
30
154.304993
70
192
0
VERTEX
8
BOOKS
10
99.149925
20
216.126892
30
154.304993
70
192
0
VERTEX
8
BOOKS
10
98.260109
20
251.203979
30
154.304993
70
192
0
VERTEX
8
BOOKS
10
94.815666
20
251.203979
30
154.304993
70
192
0
VERTEX
8
BOOKS
10
89.218452
20
216.155594
30
156.845001
70
192
0
VERTEX
8
BOOKS
10
89.247154
20
251.175278
30
156.845001
70
192
0
VERTEX
8
BOOKS
10
92.691597
20
251.232681
30
156.845001
70
192
0
VERTEX
8
BOOKS
10
92.662888
20
216.184296
30
156.845001
70
192
0
VERTEX
8
BOOKS
10
82.099937
20
216.126892
30
151.764999
70
192
0
VERTEX
8
BOOKS
10
85.458267
20
215.782440
30
151.764999
70
192
0
VERTEX
8
BOOKS
10
87.553635
20
251.031754
30
151.764999
70
192
0
VERTEX
8
BOOKS
10
84.080490
20
251.232681
30
151.764999
70
192
0
VERTEX
8
BOOKS
10
85.173660
20
214.937653
30
142.240005
70
192
0
VERTEX
8
BOOKS
10
85.210754
20
215.615204
30
142.240005
70
192
0
VERTEX
8
BOOKS
10
85.210754
20
215.615204
30
144.779999
70
192
0
VERTEX
8
BOOKS
10
85.173660
20
214.937653
30
144.779999
70
192
0
VERTEX
8
BOOKS
10
82.274612
20
215.775940
30
142.240005
70
192
0
VERTEX
8
BOOKS
10
82.274612
20
215.775940
30
144.779999
70
192
0
VERTEX
8
BOOKS
10
82.237518
20
215.098389
30
142.240005
70
192
0
VERTEX
8
BOOKS
10
82.237518
20
215.098389
30
144.779999
70
192
0
VERTEX
8
BOOKS
10
92.411423
20
215.098068
30
152.399994
70
192
0
VERTEX
8
BOOKS
10
92.411423
20
215.776627
30
152.399994
70
192
0
VERTEX
8
BOOKS
10
92.411423
20
215.776627
30
154.940002
70
192
0
VERTEX
8
BOOKS
10
92.411423
20
215.098068
30
154.940002
70
192
0
VERTEX
8
BOOKS
10
89.470886
20
215.776627
30
152.399994
70
192
0
VERTEX
8
BOOKS
10
89.470886
20
215.776627
30
154.940002
70
192
0
VERTEX
8
BOOKS
10
89.470886
20
215.098068
30
152.399994
70
192
0
VERTEX
8
BOOKS
10
89.470886
20
215.098068
30
154.940002
70
192
0
VERTEX
8
BOOKS
10
98.849609
20
215.074036
30
142.240005
70
192
0
VERTEX
8
BOOKS
10
98.832466
20
215.752380
30
142.240005
70
192
0
VERTEX
8
BOOKS
10
98.832466
20
215.752380
30
144.779999
70
192
0
VERTEX
8
BOOKS
10
98.849609
20
215.074036
30
144.779999
70
192
0
VERTEX
8
BOOKS
10
95.892868
20
215.678101
30
142.240005
70
192
0
VERTEX
8
BOOKS
10
95.892868
20
215.678101
30
144.779999
70
192
0
VERTEX
8
BOOKS
10
95.910011
20
214.999756
30
142.240005
70
192
0
VERTEX
8
BOOKS
10
95.910011
20
214.999756
30
144.779999
70
192
0
VERTEX
8
BOOKS
10
110.121956
20
216.102997
30
142.240005
70
192
0
VERTEX
8
BOOKS
10
109.982384
20
216.767044
30
142.240005
70
192
0
VERTEX
8
BOOKS
10
109.982384
20
216.767044
30
144.779999
70
192
0
VERTEX
8
BOOKS
10
110.121956
20
216.102997
30
144.779999
70
192
0
VERTEX
8
BOOKS
10
107.104729
20
216.162201
30
142.240005
70
192
0
VERTEX
8
BOOKS
10
107.104729
20
216.162201
30
144.779999
70
192
0
VERTEX
8
BOOKS
10
107.244301
20
215.498154
30
142.240005
70
192
0
VERTEX
8
BOOKS
10
107.244301
20
215.498154
30
144.779999
70
192
0
VERTEX
8
BOOKS
10
106.487175
20
215.801270
30
127.000000
70
192
0
VERTEX
8
BOOKS
10
110.692978
20
216.685287
30
127.000000
70
192
0
VERTEX
8
BOOKS
10
110.692978
20
216.685287
30
152.399994
70
192
0
VERTEX
8
BOOKS
10
106.487175
20
215.801270
30
152.399994
70
192
0
VERTEX
8
BOOKS
10
103.342010
20
251.658676
30
127.000000
70
192
0
VERTEX
8
BOOKS
10
103.342010
20
251.658676
30
152.399994
70
192
0
VERTEX
8
BOOKS
10
99.136200
20
250.774673
30
127.000000
70
192
0
VERTEX
8
BOOKS
10
99.136200
20
250.774673
30
152.399994
70
192
0
VERTEX
8
BOOKS
10
95.220215
20
215.434830
30
127.000000
70
192
0
VERTEX
8
BOOKS
10
99.516548
20
215.543411
30
127.000000
70
192
0
VERTEX
8
BOOKS
10
99.516548
20
215.543411
30
154.940002
70
192
0
VERTEX
8
BOOKS
10
95.220215
20
215.434830
30
154.940002
70
192
0
VERTEX
8
BOOKS
10
98.613693
20
251.269592
30
127.000000
70
192
0
VERTEX
8
BOOKS
10
98.613693
20
251.269592
30
154.940002
70
192
0
VERTEX
8
BOOKS
10
94.317360
20
251.161026
30
127.000000
70
192
0
VERTEX
8
BOOKS
10
94.317360
20
251.161026
30
154.940002
70
192
0
VERTEX
8
BOOKS
10
88.792305
20
215.550430
30
127.000000
70
192
0
VERTEX
8
BOOKS
10
93.090012
20
215.550430
30
127.000000
70
192
0
VERTEX
8
BOOKS
10
93.090012
20
215.550430
30
157.479996
70
192
0
VERTEX
8
BOOKS
10
88.792305
20
215.550430
30
157.479996
70
192
0
VERTEX
8
BOOKS
10
93.090012
20
251.288025
30
127.000000
70
192
0
VERTEX
8
BOOKS
10
93.090012
20
251.288025
30
157.479996
70
192
0
VERTEX
8
BOOKS
10
88.792305
20
251.288025
30
127.000000
70
192
0
VERTEX
8
BOOKS
10
88.792305
20
251.288025
30
157.479996
70
192
0
VERTEX
8
BOOKS
10
81.584679
20
215.587189
30
127.000000
70
192
0
VERTEX
8
BOOKS
10
85.875961
20
215.352249
30
127.000000
70
192
0
VERTEX
8
BOOKS
10
85.875961
20
215.352249
30
152.399994
70
192
0
VERTEX
8
BOOKS
10
81.584679
20
215.587189
30
152.399994
70
192
0
VERTEX
8
BOOKS
10
87.829536
20
251.036407
30
127.000000
70
192
0
VERTEX
8
BOOKS
10
87.829536
20
251.036407
30
152.399994
70
192
0
VERTEX
8
BOOKS
10
83.538261
20
251.271347
30
127.000000
70
192
0
VERTEX
8
BOOKS
10
83.538261
20
251.271347
30
152.399994
70
192
0
VERTEX
8
BOOKS
10
0
20
0
30
0
70
128
71
1
72
2
73
-3
0
VERTEX
8
BOOKS
10
0
20
0
30
0
70
128
71
-1
72
3
73
4
0
VERTEX
8
BOOKS
10
0
20
0
30
0
70
128
71
5
72
6
73
-7
0
VERTEX
8
BOOKS
10
0
20
0
30
0
70
128
71
-5
72
7
73
8
0
VERTEX
8
BOOKS
10
0
20
0
30
0
70
128
71
9
72
10
73
-11
0
VERTEX
8
BOOKS
10
0
20
0
30
0
70
128
71
-9
72
11
73
12
0
VERTEX
8
BOOKS
10
0
20
0
30
0
70
128
71
13
72
14
73
-15
0
VERTEX
8
BOOKS
10
0
20
0
30
0
70
128
71
-13
72
15
73
16
0
VERTEX
8
BOOKS
10
0
20
0
30
0
70
128
71
17
72
18
73
-19
0
VERTEX
8
BOOKS
10
0
20
0
30
0
70
128
71
-17
72
19
73
20
0
VERTEX
8
BOOKS
10
0
20
0
30
0
70
128
71
18
72
21
73
-22
0
VERTEX
8
BOOKS
10
0
20
0
30
0
70
128
71
-18
72
22
73
19
0
VERTEX
8
BOOKS
10
0
20
0
30
0
70
128
71
21
72
23
73
-24
0
VERTEX
8
BOOKS
10
0
20
0
30
0
70
128
71
-21
72
24
73
22
0
VERTEX
8
BOOKS
10
0
20
0
30
0
70
128
71
23
72
17
73
-20
0
VERTEX
8
BOOKS
10
0
20
0
30
0
70
128
71
-23
72
20
73
24
0
VERTEX
8
BOOKS
10
0
20
0
30
0
70
128
71
25
72
26
73
-27
0
VERTEX
8
BOOKS
10
0
20
0
30
0
70
128
71
-25
72
27
73
28
0
VERTEX
8
BOOKS
10
0
20
0
30
0
70
128
71
26
72
29
73
-30
0
VERTEX
8
BOOKS
10
0
20
0
30
0
70
128
71
-26
72
30
73
27
0
VERTEX
8
BOOKS
10
0
20
0
30
0
70
128
71
29
72
31
73
-32
0
VERTEX
8
BOOKS
10
0
20
0
30
0
70
128
71
-29
72
32
73
30
0
VERTEX
8
BOOKS
10
0
20
0
30
0
70
128
71
31
72
25
73
-28
0
VERTEX
8
BOOKS
10
0
20
0
30
0
70
128
71
-31
72
28
73
32
0
VERTEX
8
BOOKS
10
0
20
0
30
0
70
128
71
33
72
34
73
-35
0
VERTEX
8
BOOKS
10
0
20
0
30
0
70
128
71
-33
72
35
73
36
0
VERTEX
8
BOOKS
10
0
20
0
30
0
70
128
71
34
72
37
73
-38
0
VERTEX
8
BOOKS
10
0
20
0
30
0
70
128
71
-34
72
38
73
35
0
VERTEX
8
BOOKS
10
0
20
0
30
0
70
128
71
37
72
39
73
-40
0
VERTEX
8
BOOKS
10
0
20
0
30
0
70
128
71
-37
72
40
73
38
0
VERTEX
8
BOOKS
10
0
20
0
30
0
70
128
71
39
72
33
73
-36
0
VERTEX
8
BOOKS
10
0
20
0
30
0
70
128
71
-39
72
36
73
40
0
VERTEX
8
BOOKS
10
0
20
0
30
0
70
128
71
41
72
42
73
-43
0
VERTEX
8
BOOKS
10
0
20
0
30
0
70
128
71
-41
72
43
73
44
0
VERTEX
8
BOOKS
10
0
20
0
30
0
70
128
71
42
72
45
73
-46
0
VERTEX
8
BOOKS
10
0
20
0
30
0
70
128
71
-42
72
46
73
43
0
VERTEX
8
BOOKS
10
0
20
0
30
0
70
128
71
45
72
47
73
-48
0
VERTEX
8
BOOKS
10
0
20
0
30
0
70
128
71
-45
72
48
73
46
0
VERTEX
8
BOOKS
10
0
20
0
30
0
70
128
71
47
72
41
73
-44
0
VERTEX
8
BOOKS
10
0
20
0
30
0
70
128
71
-47
72
44
73
48
0
VERTEX
8
BOOKS
10
0
20
0
30
0
70
128
71
49
72
50
73
-51
0
VERTEX
8
BOOKS
10
0
20
0
30
0
70
128
71
-49
72
51
73
52
0
VERTEX
8
BOOKS
10
0
20
0
30
0
70
128
71
50
72
53
73
-54
0
VERTEX
8
BOOKS
10
0
20
0
30
0
70
128
71
-50
72
54
73
51
0
VERTEX
8
BOOKS
10
0
20
0
30
0
70
128
71
53
72
55
73
-56
0
VERTEX
8
BOOKS
10
0
20
0
30
0
70
128
71
-53
72
56
73
54
0
VERTEX
8
BOOKS
10
0
20
0
30
0
70
128
71
55
72
49
73
-52
0
VERTEX
8
BOOKS
10
0
20
0
30
0
70
128
71
-55
72
52
73
56
0
VERTEX
8
BOOKS
10
0
20
0
30
0
70
128
71
57
72
58
73
-59
0
VERTEX
8
BOOKS
10
0
20
0
30
0
70
128
71
-57
72
59
73
60
0
VERTEX
8
BOOKS
10
0
20
0
30
0
70
128
71
58
72
61
73
-62
0
VERTEX
8
BOOKS
10
0
20
0
30
0
70
128
71
-58
72
62
73
59
0
VERTEX
8
BOOKS
10
0
20
0
30
0
70
128
71
61
72
63
73
-64
0
VERTEX
8
BOOKS
10
0
20
0
30
0
70
128
71
-61
72
64
73
62
0
VERTEX
8
BOOKS
10
0
20
0
30
0
70
128
71
63
72
57
73
-60
0
VERTEX
8
BOOKS
10
0
20
0
30
0
70
128
71
-63
72
60
73
64
0
VERTEX
8
BOOKS
10
0
20
0
30
0
70
128
71
65
72
66
73
-67
0
VERTEX
8
BOOKS
10
0
20
0
30
0
70
128
71
-65
72
67
73
68
0
VERTEX
8
BOOKS
10
0
20
0
30
0
70
128
71
66
72
69
73
-70
0
VERTEX
8
BOOKS
10
0
20
0
30
0
70
128
71
-66
72
70
73
67
0
VERTEX
8
BOOKS
10
0
20
0
30
0
70
128
71
69
72
71
73
-72
0
VERTEX
8
BOOKS
10
0
20
0
30
0
70
128
71
-69
72
72
73
70
0
VERTEX
8
BOOKS
10
0
20
0
30
0
70
128
71
71
72
65
73
-68
0
VERTEX
8
BOOKS
10
0
20
0
30
0
70
128
71
-71
72
68
73
72
0
VERTEX
8
BOOKS
10
0
20
0
30
0
70
128
71
73
72
74
73
-75
0
VERTEX
8
BOOKS
10
0
20
0
30
0
70
128
71
-73
72
75
73
76
0
VERTEX
8
BOOKS
10
0
20
0
30
0
70
128
71
74
72
77
73
-78
0
VERTEX
8
BOOKS
10
0
20
0
30
0
70
128
71
-74
72
78
73
75
0
VERTEX
8
BOOKS
10
0
20
0
30
0
70
128
71
77
72
79
73
-80
0
VERTEX
8
BOOKS
10
0
20
0
30
0
70
128
71
-77
72
80
73
78
0
VERTEX
8
BOOKS
10
0
20
0
30
0
70
128
71
79
72
73
73
-76
0
VERTEX
8
BOOKS
10
0
20
0
30
0
70
128
71
-79
72
76
73
80
0
SEQEND
8
BOOKS
0
POLYLINE
8
PICTURE
66
1
70
64
71
12
72
14
0
VERTEX
8
PICTURE
10
16.233110
20
135.070724
30
101.599998
70
192
0
VERTEX
8
PICTURE
10
16.233110
20
56.524509
30
101.599998
70
192
0
VERTEX
8
PICTURE
10
16.233110
20
56.524509
30
149.860001
70
192
0
VERTEX
8
PICTURE
10
16.233110
20
135.070724
30
149.860001
70
192
0
VERTEX
8
PICTURE
10
13.716777
20
56.524509
30
101.599998
70
192
0
VERTEX
8
PICTURE
10
13.716777
20
56.524509
30
149.860001
70
192
0
VERTEX
8
PICTURE
10
13.716777
20
135.070724
30
101.599998
70
192
0
VERTEX
8
PICTURE
10
13.716777
20
135.070724
30
149.860001
70
192
0
VERTEX
8
PICTURE
10
17.151997
20
132.610855
30
104.139999
70
192
0
VERTEX
8
PICTURE
10
17.151997
20
58.673363
30
104.139999
70
192
0
VERTEX
8
PICTURE
10
17.151997
20
58.673363
30
147.320007
70
192
0
VERTEX
8
PICTURE
10
17.151997
20
132.610855
30
147.320007
70
192
0
VERTEX
8
PICTURE
10
0
20
0
30
0
70
128
71
3
72
2
73
-1
0
VERTEX
8
PICTURE
10
0
20
0
30
0
70
128
71
4
72
-3
73
1
0
VERTEX
8
PICTURE
10
0
20
0
30
0
70
128
71
6
72
5
73
-2
0
VERTEX
8
PICTURE
10
0
20
0
30
0
70
128
71
3
72
-6
73
2
0
VERTEX
8
PICTURE
10
0
20
0
30
0
70
128
71
8
72
7
73
-5
0
VERTEX
8
PICTURE
10
0
20
0
30
0
70
128
71
6
72
-8
73
5
0
VERTEX
8
PICTURE
10
0
20
0
30
0
70
128
71
4
72
1
73
-7
0
VERTEX
8
PICTURE
10
0
20
0
30
0
70
128
71
8
72
-4
73
7
0
VERTEX
8
PICTURE
10
0
20
0
30
0
70
128
71
6
72
3
73
-4
0
VERTEX
8
PICTURE
10
0
20
0
30
0
70
128
71
8
72
-6
73
4
0
VERTEX
8
PICTURE
10
0
20
0
30
0
70
128
71
5
72
2
73
-1
0
VERTEX
8
PICTURE
10
0
20
0
30
0
70
128
71
7
72
-5
73
1
0
VERTEX
8
PICTURE
10
0
20
0
30
0
70
128
71
11
72
10
73
-9
0
VERTEX
8
PICTURE
10
0
20
0
30
0
70
128
71
12
72
-11
73
9
0
SEQEND
8
PICTURE
0
POLYLINE
8
FLOOR
66
1
70
64
71
4
72
2
0
VERTEX
8
FLOOR
10
0.000000
20
264.398956
30
0.000000
70
192
0
VERTEX
8
FLOOR
10
344.005035
20
264.398956
30
0.000000
70
192
0
VERTEX
8
FLOOR
10
344.005035
20
0.000000
30
0.000000
70
192
0
VERTEX
8
FLOOR
10
0.000000
20
0.000000
30
0.000000
70
192
0
VERTEX
8
FLOOR
10
0
20
0
30
0
70
128
71
3
72
2
73
-1
0
VERTEX
8
FLOOR
10
0
20
0
30
0
70
128
71
4
72
-3
73
1
0
SEQEND
8
FLOOR
0
POLYLINE
8
WALLS
66
1
70
64
71
46
72
56
0
VERTEX
8
WALLS
10
7.628036
20
256.851166
30
0.000000
70
192
0
VERTEX
8
WALLS
10
243.786087
20
256.851166
30
0.000000
70
192
0
VERTEX
8
WALLS
10
243.786087
20
256.851166
30
162.559998
70
192
0
VERTEX
8
WALLS
10
7.628036
20
256.851166
30
162.559998
70
192
0
VERTEX
8
WALLS
10
241.681885
20
251.771179
30
0.000000
70
192
0
VERTEX
8
WALLS
10
241.681885
20
251.771179
30
162.559998
70
192
0
VERTEX
8
WALLS
10
7.628036
20
251.771179
30
0.000000
70
192
0
VERTEX
8
WALLS
10
7.628036
20
251.771179
30
162.559998
70
192
0
VERTEX
8
WALLS
10
334.504028
20
166.133224
30
0.000000
70
192
0
VERTEX
8
WALLS
10
334.504028
20
166.133224
30
162.559998
70
192
0
VERTEX
8
WALLS
10
329.424042
20
164.029022
30
0.000000
70
192
0
VERTEX
8
WALLS
10
329.424042
20
164.029022
30
162.559998
70
192
0
VERTEX
8
WALLS
10
334.926270
20
166.334808
30
0.000000
70
192
0
VERTEX
8
WALLS
10
334.926270
20
166.334808
30
162.559998
70
192
0
VERTEX
8
WALLS
10
7.335464
20
257.207550
30
0.000000
70
192
0
VERTEX
8
WALLS
10
7.335464
20
257.207550
30
162.559998
70
192
0
VERTEX
8
WALLS
10
244.056641
20
257.207550
30
0.000000
70
192
0
VERTEX
8
WALLS
10
244.056641
20
257.207550
30
162.559998
70
192
0
VERTEX
8
WALLS
10
7.628036
20
256.851166
30
0.000000
70
192
0
VERTEX
8
WALLS
10
7.628036
20
256.851166
30
162.559998
70
192
0
VERTEX
8
WALLS
10
7.628036
20
251.771179
30
0.000000
70
192
0
VERTEX
8
WALLS
10
7.628036
20
251.771179
30
162.559998
70
192
0
VERTEX
8
WALLS
10
334.504028
20
166.133224
30
0.000000
70
192
0
VERTEX
8
WALLS
10
334.504028
20
166.133224
30
162.559998
70
192
0
VERTEX
8
WALLS
10
329.424042
20
164.029022
30
0.000000
70
192
0
VERTEX
8
WALLS
10
329.424042
20
164.029022
30
162.559998
70
192
0
VERTEX
8
WALLS
10
334.504028
20
71.505943
30
0.000000
70
192
0
VERTEX
8
WALLS
10
334.504028
20
71.505943
30
162.559998
70
192
0
VERTEX
8
WALLS
10
329.424042
20
71.505943
30
0.000000
70
192
0
VERTEX
8
WALLS
10
329.424042
20
71.505943
30
162.559998
70
192
0
VERTEX
8
WALLS
10
12.750397
20
251.754868
30
0.000000
70
192
0
VERTEX
8
WALLS
10
12.750397
20
11.712265
30
0.000000
70
192
0
VERTEX
8
WALLS
10
12.750397
20
11.712265
30
162.559998
70
192
0
VERTEX
8
WALLS
10
12.750397
20
251.754868
30
162.559998
70
192
0
VERTEX
8
WALLS
10
7.670395
20
11.712265
30
0.000000
70
192
0
VERTEX
8
WALLS
10
7.670395
20
11.712265
30
162.559998
70
192
0
VERTEX
8
WALLS
10
7.670395
20
251.754868
30
0.000000
70
192
0
VERTEX
8
WALLS
10
7.670395
20
251.754868
30
162.559998
70
192
0
VERTEX
8
WALLS
10
334.926270
20
166.334808
30
0.000000
70
192
0
VERTEX
8
WALLS
10
335.004883
20
71.606819
30
0.000000
70
192
0
VERTEX
8
WALLS
10
335.004883
20
71.606819
30
162.559998
70
192
0
VERTEX
8
WALLS
10
334.926270
20
166.334808
30
162.559998
70
192
0
VERTEX
8
WALLS
10
7.335464
20
11.718102
30
0.000000
70
192
0
VERTEX
8
WALLS
10
7.335464
20
257.207550
30
0.000000
70
192
0
VERTEX
8
WALLS
10
7.335464
20
257.207550
30
162.559998
70
192
0
VERTEX
8
WALLS
10
7.335464
20
11.718102
30
162.559998
70
192
0
VERTEX
8
WALLS
10
0
20
0
30
0
70
128
71
3
72
2
73
-1
0
VERTEX
8
WALLS
10
0
20
0
30
0
70
128
71
4
72
-3
73
1
0
VERTEX
8
WALLS
10
0
20
0
30
0
70
128
71
2
72
5
73
-6
0
VERTEX
8
WALLS
10
0
20
0
30
0
70
128
71
-2
72
6
73
3
0
VERTEX
8
WALLS
10
0
20
0
30
0
70
128
71
8
72
7
73
-5
0
VERTEX
8
WALLS
10
0
20
0
30
0
70
128
71
6
72
-8
73
5
0
VERTEX
8
WALLS
10
0
20
0
30
0
70
128
71
6
72
3
73
-4
0
VERTEX
8
WALLS
10
0
20
0
30
0
70
128
71
8
72
-6
73
4
0
VERTEX
8
WALLS
10
0
20
0
30
0
70
128
71
1
72
2
73
-5
0
VERTEX
8
WALLS
10
0
20
0
30
0
70
128
71
-1
72
5
73
7
0
VERTEX
8
WALLS
10
0
20
0
30
0
70
128
71
10
72
9
73
-2
0
VERTEX
8
WALLS
10
0
20
0
30
0
70
128
71
3
72
-10
73
2
0
VERTEX
8
WALLS
10
0
20
0
30
0
70
128
71
6
72
5
73
-11
0
VERTEX
8
WALLS
10
0
20
0
30
0
70
128
71
12
72
-6
73
11
0
VERTEX
8
WALLS
10
0
20
0
30
0
70
128
71
5
72
2
73
-3
0
VERTEX
8
WALLS
10
0
20
0
30
0
70
128
71
-5
72
3
73
6
0
VERTEX
8
WALLS
10
0
20
0
30
0
70
128
71
12
72
10
73
-3
0
VERTEX
8
WALLS
10
0
20
0
30
0
70
128
71
6
72
-12
73
3
0
VERTEX
8
WALLS
10
0
20
0
30
0
70
128
71
2
72
9
73
-11
0
VERTEX
8
WALLS
10
0
20
0
30
0
70
128
71
-2
72
11
73
5
0
VERTEX
8
WALLS
10
0
20
0
30
0
70
128
71
18
72
17
73
-15
0
VERTEX
8
WALLS
10
0
20
0
30
0
70
128
71
16
72
-18
73
15
0
VERTEX
8
WALLS
10
0
20
0
30
0
70
128
71
14
72
13
73
-17
0
VERTEX
8
WALLS
10
0
20
0
30
0
70
128
71
18
72
-14
73
17
0
VERTEX
8
WALLS
10
0
20
0
30
0
70
128
71
20
72
19
73
-21
0
VERTEX
8
WALLS
10
0
20
0
30
0
70
128
71
22
72
-20
73
21
0
VERTEX
8
WALLS
10
0
20
0
30
0
70
128
71
23
72
25
73
-26
0
VERTEX
8
WALLS
10
0
20
0
30
0
70
128
71
-23
72
26
73
24
0
VERTEX
8
WALLS
10
0
20
0
30
0
70
128
71
28
72
27
73
-23
0
VERTEX
8
WALLS
10
0
20
0
30
0
70
128
71
24
72
-28
73
23
0
VERTEX
8
WALLS
10
0
20
0
30
0
70
128
71
30
72
29
73
-27
0
VERTEX
8
WALLS
10
0
20
0
30
0
70
128
71
28
72
-30
73
27
0
VERTEX
8
WALLS
10
0
20
0
30
0
70
128
71
26
72
25
73
-29
0
VERTEX
8
WALLS
10
0
20
0
30
0
70
128
71
30
72
-26
73
29
0
VERTEX
8
WALLS
10
0
20
0
30
0
70
128
71
25
72
23
73
-24
0
VERTEX
8
WALLS
10
0
20
0
30
0
70
128
71
-25
72
24
73
26
0
VERTEX
8
WALLS
10
0
20
0
30
0
70
128
71
30
72
28
73
-24
0
VERTEX
8
WALLS
10
0
20
0
30
0
70
128
71
26
72
-30
73
24
0
VERTEX
8
WALLS
10
0
20
0
30
0
70
128
71
23
72
27
73
-29
0
VERTEX
8
WALLS
10
0
20
0
30
0
70
128
71
-23
72
29
73
25
0
VERTEX
8
WALLS
10
0
20
0
30
0
70
128
71
33
72
32
73
-31
0
VERTEX
8
WALLS
10
0
20
0
30
0
70
128
71
34
72
-33
73
31
0
VERTEX
8
WALLS
10
0
20
0
30
0
70
128
71
36
72
35
73
-32
0
VERTEX
8
WALLS
10
0
20
0
30
0
70
128
71
33
72
-36
73
32
0
VERTEX
8
WALLS
10
0
20
0
30
0
70
128
71
38
72
37
73
-35
0
VERTEX
8
WALLS
10
0
20
0
30
0
70
128
71
36
72
-38
73
35
0
VERTEX
8
WALLS
10
0
20
0
30
0
70
128
71
34
72
31
73
-37
0
VERTEX
8
WALLS
10
0
20
0
30
0
70
128
71
38
72
-34
73
37
0
VERTEX
8
WALLS
10
0
20
0
30
0
70
128
71
36
72
33
73
-34
0
VERTEX
8
WALLS
10
0
20
0
30
0
70
128
71
38
72
-36
73
34
0
VERTEX
8
WALLS
10
0
20
0
30
0
70
128
71
31
72
32
73
-35
0
VERTEX
8
WALLS
10
0
20
0
30
0
70
128
71
-31
72
35
73
37
0
VERTEX
8
WALLS
10
0
20
0
30
0
70
128
71
41
72
40
73
-39
0
VERTEX
8
WALLS
10
0
20
0
30
0
70
128
71
42
72
-41
73
39
0
VERTEX
8
WALLS
10
0
20
0
30
0
70
128
71
45
72
44
73
-43
0
VERTEX
8
WALLS
10
0
20
0
30
0
70
128
71
46
72
-45
73
43
0
SEQEND
8
WALLS
0
POLYLINE
8
TABLE
66
1
70
64
71
28
72
50
0
VERTEX
8
TABLE
10
16.132290
20
175.397446
30
55.880001
70
192
0
VERTEX
8
TABLE
10
61.765533
20
175.397446
30
55.880001
70
192
0
VERTEX
8
TABLE
10
61.765533
20
175.397446
30
60.959999
70
192
0
VERTEX
8
TABLE
10
16.132290
20
175.397446
30
60.959999
70
192
0
VERTEX
8
TABLE
10
61.765533
20
23.175301
30
55.880001
70
192
0
VERTEX
8
TABLE
10
61.765533
20
23.175301
30
60.959999
70
192
0
VERTEX
8
TABLE
10
16.132290
20
23.175301
30
55.880001
70
192
0
VERTEX
8
TABLE
10
16.132290
20
23.175301
30
60.959999
70
192
0
VERTEX
8
TABLE
10
16.132290
20
175.397446
30
0.000000
70
192
0
VERTEX
8
TABLE
10
16.132290
20
23.175301
30
0.000000
70
192
0
VERTEX
8
TABLE
10
61.765533
20
175.397446
30
0.000000
70
192
0
VERTEX
8
TABLE
10
61.765533
20
175.397446
30
10.160000
70
192
0
VERTEX
8
TABLE
10
16.132290
20
175.397446
30
10.160000
70
192
0
VERTEX
8
TABLE
10
61.765533
20
23.175301
30
0.000000
70
192
0
VERTEX
8
TABLE
10
61.765533
20
23.175301
30
10.160000
70
192
0
VERTEX
8
TABLE
10
16.132290
20
23.175301
30
10.160000
70
192
0
VERTEX
8
TABLE
10
16.132290
20
28.255302
30
10.160000
70
192
0
VERTEX
8
TABLE
10
61.852287
20
28.255302
30
10.160000
70
192
0
VERTEX
8
TABLE
10
61.852287
20
28.255302
30
55.880001
70
192
0
VERTEX
8
TABLE
10
16.132290
20
28.255302
30
55.880001
70
192
0
VERTEX
8
TABLE
10
61.852287
20
23.175301
30
10.160000
70
192
0
VERTEX
8
TABLE
10
61.852287
20
23.175301
30
55.880001
70
192
0
VERTEX
8
TABLE
10
16.132290
20
170.317444
30
10.160000
70
192
0
VERTEX
8
TABLE
10
61.852287
20
170.317444
30
10.160000
70
192
0
VERTEX
8
TABLE
10
61.852287
20
170.317444
30
55.880001
70
192
0
VERTEX
8
TABLE
10
16.132290
20
170.317444
30
55.880001
70
192
0
VERTEX
8
TABLE
10
61.852287
20
175.397446
30
10.160000
70
192
0
VERTEX
8
TABLE
10
61.852287
20
175.397446
30
55.880001
70
192
0
VERTEX
8
TABLE
10
0
20
0
30
0
70
128
71
3
72
2
73
-1
0
VERTEX
8
TABLE
10
0
20
0
30
0
70
128
71
4
72
-3
73
1
0
VERTEX
8
TABLE
10
0
20
0
30
0
70
128
71
6
72
5
73
-2
0
VERTEX
8
TABLE
10
0
20
0
30
0
70
128
71
3
72
-6
73
2
0
VERTEX
8
TABLE
10
0
20
0
30
0
70
128
71
8
72
7
73
-5
0
VERTEX
8
TABLE
10
0
20
0
30
0
70
128
71
6
72
-8
73
5
0
VERTEX
8
TABLE
10
0
20
0
30
0
70
128
71
4
72
1
73
-7
0
VERTEX
8
TABLE
10
0
20
0
30
0
70
128
71
8
72
-4
73
7
0
VERTEX
8
TABLE
10
0
20
0
30
0
70
128
71
6
72
3
73
-4
0
VERTEX
8
TABLE
10
0
20
0
30
0
70
128
71
8
72
-6
73
4
0
VERTEX
8
TABLE
10
0
20
0
30
0
70
128
71
5
72
2
73
-1
0
VERTEX
8
TABLE
10
0
20
0
30
0
70
128
71
7
72
-5
73
1
0
VERTEX
8
TABLE
10
0
20
0
30
0
70
128
71
8
72
10
73
-9
0
VERTEX
8
TABLE
10
0
20
0
30
0
70
128
71
4
72
-8
73
9
0
VERTEX
8
TABLE
10
0
20
0
30
0
70
128
71
12
72
11
73
-9
0
VERTEX
8
TABLE
10
0
20
0
30
0
70
128
71
13
72
-12
73
9
0
VERTEX
8
TABLE
10
0
20
0
30
0
70
128
71
15
72
14
73
-11
0
VERTEX
8
TABLE
10
0
20
0
30
0
70
128
71
12
72
-15
73
11
0
VERTEX
8
TABLE
10
0
20
0
30
0
70
128
71
16
72
10
73
-14
0
VERTEX
8
TABLE
10
0
20
0
30
0
70
128
71
15
72
-16
73
14
0
VERTEX
8
TABLE
10
0
20
0
30
0
70
128
71
13
72
9
73
-10
0
VERTEX
8
TABLE
10
0
20
0
30
0
70
128
71
16
72
-13
73
10
0
VERTEX
8
TABLE
10
0
20
0
30
0
70
128
71
15
72
12
73
-13
0
VERTEX
8
TABLE
10
0
20
0
30
0
70
128
71
16
72
-15
73
13
0
VERTEX
8
TABLE
10
0
20
0
30
0
70
128
71
14
72
11
73
-9
0
VERTEX
8
TABLE
10
0
20
0
30
0
70
128
71
10
72
-14
73
9
0
VERTEX
8
TABLE
10
0
20
0
30
0
70
128
71
19
72
18
73
-17
0
VERTEX
8
TABLE
10
0
20
0
30
0
70
128
71
20
72
-19
73
17
0
VERTEX
8
TABLE
10
0
20
0
30
0
70
128
71
22
72
21
73
-18
0
VERTEX
8
TABLE
10
0
20
0
30
0
70
128
71
19
72
-22
73
18
0
VERTEX
8
TABLE
10
0
20
0
30
0
70
128
71
7
72
16
73
-21
0
VERTEX
8
TABLE
10
0
20
0
30
0
70
128
71
22
72
-7
73
21
0
VERTEX
8
TABLE
10
0
20
0
30
0
70
128
71
20
72
17
73
-16
0
VERTEX
8
TABLE
10
0
20
0
30
0
70
128
71
7
72
-20
73
16
0
VERTEX
8
TABLE
10
0
20
0
30
0
70
128
71
22
72
19
73
-20
0
VERTEX
8
TABLE
10
0
20
0
30
0
70
128
71
7
72
-22
73
20
0
VERTEX
8
TABLE
10
0
20
0
30
0
70
128
71
21
72
18
73
-17
0
VERTEX
8
TABLE
10
0
20
0
30
0
70
128
71
16
72
-21
73
17
0
VERTEX
8
TABLE
10
0
20
0
30
0
70
128
71
25
72
24
73
-23
0
VERTEX
8
TABLE
10
0
20
0
30
0
70
128
71
26
72
-25
73
23
0
VERTEX
8
TABLE
10
0
20
0
30
0
70
128
71
28
72
27
73
-24
0
VERTEX
8
TABLE
10
0
20
0
30
0
70
128
71
25
72
-28
73
24
0
VERTEX
8
TABLE
10
0
20
0
30
0
70
128
71
1
72
13
73
-27
0
VERTEX
8
TABLE
10
0
20
0
30
0
70
128
71
28
72
-1
73
27
0
VERTEX
8
TABLE
10
0
20
0
30
0
70
128
71
26
72
23
73
-13
0
VERTEX
8
TABLE
10
0
20
0
30
0
70
128
71
1
72
-26
73
13
0
VERTEX
8
TABLE
10
0
20
0
30
0
70
128
71
28
72
25
73
-26
0
VERTEX
8
TABLE
10
0
20
0
30
0
70
128
71
1
72
-28
73
26
0
VERTEX
8
TABLE
10
0
20
0
30
0
70
128
71
23
72
24
73
-27
0
VERTEX
8
TABLE
10
0
20
0
30
0
70
128
71
-23
72
27
73
13
0
SEQEND
8
TABLE
0
POLYLINE
8
CHAIR
66
1
70
64
71
180
72
264
0
VERTEX
8
CHAIR
10
176.433960
20
93.990715
30
48.895000
70
192
0
VERTEX
8
CHAIR
10
151.710022
20
61.736473
30
48.895000
70
192
0
VERTEX
8
CHAIR
10
151.710022
20
61.736473
30
86.360001
70
192
0
VERTEX
8
CHAIR
10
176.433960
20
93.990715
30
86.360001
70
192
0
VERTEX
8
CHAIR
10
155.741791
20
58.645981
30
48.895000
70
192
0
VERTEX
8
CHAIR
10
155.741791
20
58.645981
30
86.360001
70
192
0
VERTEX
8
CHAIR
10
180.465744
20
90.900223
30
48.895000
70
192
0
VERTEX
8
CHAIR
10
180.465744
20
90.900223
30
86.360001
70
192
0
VERTEX
8
CHAIR
10
162.735001
20
76.328148
30
47.958374
70
192
0
VERTEX
8
CHAIR
10
151.710022
20
61.736473
30
67.627502
70
192
0
VERTEX
8
CHAIR
10
164.286911
20
78.978996
30
67.627502
70
192
0
VERTEX
8
CHAIR
10
164.071991
20
77.863594
30
87.296623
70
192
0
VERTEX
8
CHAIR
10
176.951263
20
94.874336
30
67.627502
70
192
0
VERTEX
8
CHAIR
10
153.725906
20
60.191227
30
47.958374
70
192
0
VERTEX
8
CHAIR
10
155.224487
20
57.762363
30
67.627502
70
192
0
VERTEX
8
CHAIR
10
151.354309
20
56.888538
30
67.627502
70
192
0
VERTEX
8
CHAIR
10
152.906219
20
59.539394
30
87.296623
70
192
0
VERTEX
8
CHAIR
10
169.440750
20
76.308548
30
47.958374
70
192
0
VERTEX
8
CHAIR
10
180.465744
20
90.900223
30
67.627502
70
192
0
VERTEX
8
CHAIR
10
167.888840
20
73.657700
30
67.627502
70
192
0
VERTEX
8
CHAIR
10
168.103760
20
74.773102
30
87.296623
70
192
0
VERTEX
8
CHAIR
10
178.449860
20
92.445465
30
47.958374
70
192
0
VERTEX
8
CHAIR
10
180.821457
20
95.748154
30
67.627502
70
192
0
VERTEX
8
CHAIR
10
179.269547
20
93.097298
30
87.296623
70
192
0
VERTEX
8
CHAIR
10
166.087875
20
76.318344
30
90.106499
70
192
0
VERTEX
8
CHAIR
10
166.087875
20
76.318344
30
45.148499
70
192
0
VERTEX
8
CHAIR
10
177.979202
20
96.006607
30
43.180000
70
192
0
VERTEX
8
CHAIR
10
150.164764
20
59.720585
30
43.180000
70
192
0
VERTEX
8
CHAIR
10
150.164764
20
59.720585
30
48.259998
70
192
0
VERTEX
8
CHAIR
10
177.979202
20
96.006607
30
48.259998
70
192
0
VERTEX
8
CHAIR
10
182.419006
20
34.996639
30
43.180000
70
192
0
VERTEX
8
CHAIR
10
182.419006
20
34.996639
30
48.259998
70
192
0
VERTEX
8
CHAIR
10
210.233444
20
71.282661
30
43.180000
70
192
0
VERTEX
8
CHAIR
10
210.233444
20
71.282661
30
48.259998
70
192
0
VERTEX
8
CHAIR
10
162.314331
20
76.906631
30
43.078400
70
192
0
VERTEX
8
CHAIR
10
150.164764
20
59.720585
30
45.720001
70
192
0
VERTEX
8
CHAIR
10
162.995316
20
79.800018
30
45.719994
70
192
0
VERTEX
8
CHAIR
10
164.071991
20
77.863594
30
48.361599
70
192
0
VERTEX
8
CHAIR
10
177.890411
20
97.226807
30
45.720001
70
192
0
VERTEX
8
CHAIR
10
166.291885
20
47.358612
30
43.078400
70
192
0
VERTEX
8
CHAIR
10
182.507797
20
33.776440
30
45.720001
70
192
0
VERTEX
8
CHAIR
10
165.498566
20
44.932812
30
45.719997
70
192
0
VERTEX
8
CHAIR
10
164.445435
20
47.621849
30
48.361599
70
192
0
VERTEX
8
CHAIR
10
198.083893
20
54.096611
30
43.078400
70
192
0
VERTEX
8
CHAIR
10
210.233444
20
71.282661
30
45.720001
70
192
0
VERTEX
8
CHAIR
10
197.402817
20
51.203213
30
45.719994
70
192
0
VERTEX
8
CHAIR
10
196.326233
20
53.139648
30
48.361599
70
192
0
VERTEX
8
CHAIR
10
194.106323
20
83.644638
30
43.078400
70
192
0
VERTEX
8
CHAIR
10
194.899628
20
86.070442
30
45.719990
70
192
0
VERTEX
8
CHAIR
10
195.952789
20
83.381401
30
48.361599
70
192
0
VERTEX
8
CHAIR
10
180.199097
20
65.501625
30
48.666397
70
192
0
VERTEX
8
CHAIR
10
180.199097
20
65.501625
30
42.773602
70
192
0
VERTEX
8
CHAIR
10
156.695557
20
65.470116
30
0.000000
70
192
0
VERTEX
8
CHAIR
10
156.728165
20
66.739700
30
0.000000
70
192
0
VERTEX
8
CHAIR
10
156.728165
20
66.739700
30
5.080002
70
192
0
VERTEX
8
CHAIR
10
156.695557
20
65.470116
30
5.080002
70
192
0
VERTEX
8
CHAIR
10
157.976807
20
66.693497
30
0.000000
70
192
0
VERTEX
8
CHAIR
10
157.976807
20
66.693497
30
5.080002
70
192
0
VERTEX
8
CHAIR
10
157.944733
20
65.444733
30
0.000000
70
192
0
VERTEX
8
CHAIR
10
157.944733
20
65.444733
30
5.080002
70
192
0
VERTEX
8
CHAIR
10
173.376236
20
44.318878
30
0.000000
70
192
0
VERTEX
8
CHAIR
10
172.198502
20
44.735275
30
0.000000
70
192
0
VERTEX
8
CHAIR
10
172.198502
20
44.735275
30
5.080002
70
192
0
VERTEX
8
CHAIR
10
173.376236
20
44.318878
30
5.080002
70
192
0
VERTEX
8
CHAIR
10
172.966064
20
43.138676
30
0.000000
70
192
0
VERTEX
8
CHAIR
10
172.966064
20
43.138676
30
5.080002
70
192
0
VERTEX
8
CHAIR
10
171.768707
20
43.562012
30
0.000000
70
192
0
VERTEX
8
CHAIR
10
171.768707
20
43.562012
30
5.080002
70
192
0
VERTEX
8
CHAIR
10
198.236710
20
52.466854
30
0.000000
70
192
0
VERTEX
8
CHAIR
10
197.476761
20
51.475437
30
0.000000
70
192
0
VERTEX
8
CHAIR
10
197.476761
20
51.475437
30
5.080002
70
192
0
VERTEX
8
CHAIR
10
198.236710
20
52.466854
30
5.080002
70
192
0
VERTEX
8
CHAIR
10
199.232407
20
51.712067
30
0.000000
70
192
0
VERTEX
8
CHAIR
10
199.232407
20
51.712067
30
5.080002
70
192
0
VERTEX
8
CHAIR
10
198.459778
20
50.704121
30
0.000000
70
192
0
VERTEX
8
CHAIR
10
198.459778
20
50.704121
30
5.080002
70
192
0
VERTEX
8
CHAIR
10
198.169830
20
78.628433
30
0.000000
70
192
0
VERTEX
8
CHAIR
10
198.877884
20
77.599312
30
0.000000
70
192
0
VERTEX
8
CHAIR
10
198.877884
20
77.599312
30
5.080002
70
192
0
VERTEX
8
CHAIR
10
198.169830
20
78.628433
30
5.080002
70
192
0
VERTEX
8
CHAIR
10
199.195374
20
79.342155
30
0.000000
70
192
0
VERTEX
8
CHAIR
10
199.195374
20
79.342155
30
5.080002
70
192
0
VERTEX
8
CHAIR
10
199.915222
20
78.295876
30
0.000000
70
192
0
VERTEX
8
CHAIR
10
199.915222
20
78.295876
30
5.080002
70
192
0
VERTEX
8
CHAIR
10
173.268021
20
86.649208
30
0.000000
70
192
0
VERTEX
8
CHAIR
10
174.465576
20
87.004593
30
0.000000
70
192
0
VERTEX
8
CHAIR
10
174.465576
20
87.004593
30
5.080002
70
192
0
VERTEX
8
CHAIR
10
173.268021
20
86.649208
30
5.080002
70
192
0
VERTEX
8
CHAIR
10
172.906143
20
87.845100
30
0.000000
70
192
0
VERTEX
8
CHAIR
10
172.906143
20
87.845100
30
5.080002
70
192
0
VERTEX
8
CHAIR
10
174.123672
20
88.206406
30
0.000000
70
192
0
VERTEX
8
CHAIR
10
174.123672
20
88.206406
30
5.080002
70
192
0
VERTEX
8
CHAIR
10
179.976395
20
62.966724
30
5.080002
70
192
0
VERTEX
8
CHAIR
10
178.779037
20
63.390060
30
5.080002
70
192
0
VERTEX
8
CHAIR
10
178.779037
20
63.390060
30
10.160000
70
192
0
VERTEX
8
CHAIR
10
179.976395
20
62.966724
30
10.160000
70
192
0
VERTEX
8
CHAIR
10
171.768707
20
43.562012
30
5.080002
70
192
0
VERTEX
8
CHAIR
10
171.768707
20
43.562012
30
10.160000
70
192
0
VERTEX
8
CHAIR
10
172.966064
20
43.138676
30
5.080002
70
192
0
VERTEX
8
CHAIR
10
172.966064
20
43.138676
30
10.160000
70
192
0
VERTEX
8
CHAIR
10
177.719452
20
64.930107
30
5.080002
70
192
0
VERTEX
8
CHAIR
10
177.752060
20
66.199684
30
5.080002
70
192
0
VERTEX
8
CHAIR
10
177.752060
20
66.199684
30
10.160000
70
192
0
VERTEX
8
CHAIR
10
177.719452
20
64.930107
30
10.160000
70
192
0
VERTEX
8
CHAIR
10
156.728165
20
66.739700
30
5.080002
70
192
0
VERTEX
8
CHAIR
10
156.728165
20
66.739700
30
10.160000
70
192
0
VERTEX
8
CHAIR
10
156.695557
20
65.470116
30
5.080002
70
192
0
VERTEX
8
CHAIR
10
156.695557
20
65.470116
30
10.160000
70
192
0
VERTEX
8
CHAIR
10
178.889313
20
67.683304
30
5.080002
70
192
0
VERTEX
8
CHAIR
10
180.106827
20
68.044617
30
5.080002
70
192
0
VERTEX
8
CHAIR
10
180.106827
20
68.044617
30
10.160000
70
192
0
VERTEX
8
CHAIR
10
178.889313
20
67.683304
30
10.160000
70
192
0
VERTEX
8
CHAIR
10
174.123672
20
88.206406
30
5.080002
70
192
0
VERTEX
8
CHAIR
10
174.123672
20
88.206406
30
10.160000
70
192
0
VERTEX
8
CHAIR
10
172.906143
20
87.845100
30
5.080002
70
192
0
VERTEX
8
CHAIR
10
172.906143
20
87.845100
30
10.160000
70
192
0
VERTEX
8
CHAIR
10
181.869263
20
67.421494
30
5.080002
70
192
0
VERTEX
8
CHAIR
10
182.589127
20
66.375214
30
5.080002
70
192
0
VERTEX
8
CHAIR
10
182.589127
20
66.375214
30
10.160000
70
192
0
VERTEX
8
CHAIR
10
181.869263
20
67.421494
30
10.160000
70
192
0
VERTEX
8
CHAIR
10
199.915222
20
78.295876
30
5.080002
70
192
0
VERTEX
8
CHAIR
10
199.915222
20
78.295876
30
10.160000
70
192
0
VERTEX
8
CHAIR
10
199.195374
20
79.342155
30
5.080002
70
192
0
VERTEX
8
CHAIR
10
199.195374
20
79.342155
30
10.160000
70
192
0
VERTEX
8
CHAIR
10
182.541122
20
64.506485
30
5.080002
70
192
0
VERTEX
8
CHAIR
10
181.768494
20
63.498543
30
5.080002
70
192
0
VERTEX
8
CHAIR
10
181.768494
20
63.498543
30
10.160000
70
192
0
VERTEX
8
CHAIR
10
182.541122
20
64.506485
30
10.160000
70
192
0
VERTEX
8
CHAIR
10
198.459778
20
50.704121
30
5.080002
70
192
0
VERTEX
8
CHAIR
10
198.459778
20
50.704121
30
10.160000
70
192
0
VERTEX
8
CHAIR
10
199.232407
20
51.712067
30
5.080002
70
192
0
VERTEX
8
CHAIR
10
199.232407
20
51.712067
30
10.160000
70
192
0
VERTEX
8
CHAIR
10
178.174210
20
42.577843
30
48.259998
70
192
0
VERTEX
8
CHAIR
10
176.877304
20
40.885941
30
48.259998
70
192
0
VERTEX
8
CHAIR
10
176.877304
20
40.885941
30
66.040001
70
192
0
VERTEX
8
CHAIR
10
178.174210
20
42.577843
30
66.040001
70
192
0
VERTEX
8
CHAIR
10
175.227234
20
42.180645
30
48.259998
70
192
0
VERTEX
8
CHAIR
10
175.227234
20
42.180645
30
66.040001
70
192
0
VERTEX
8
CHAIR
10
176.502869
20
43.844803
30
48.259998
70
192
0
VERTEX
8
CHAIR
10
176.502869
20
43.844803
30
66.040001
70
192
0
VERTEX
8
CHAIR
10
201.564880
20
75.759010
30
48.259998
70
192
0
VERTEX
8
CHAIR
10
200.289261
20
74.094849
30
48.259998
70
192
0
VERTEX
8
CHAIR
10
200.289261
20
74.094849
30
66.040001
70
192
0
VERTEX
8
CHAIR
10
201.564880
20
75.759010
30
66.040001
70
192
0
VERTEX
8
CHAIR
10
203.236221
20
74.492050
30
48.259998
70
192
0
VERTEX
8
CHAIR
10
203.236221
20
74.492050
30
66.040001
70
192
0
VERTEX
8
CHAIR
10
201.939331
20
72.800148
30
48.259998
70
192
0
VERTEX
8
CHAIR
10
201.939331
20
72.800148
30
66.040001
70
192
0
VERTEX
8
CHAIR
10
182.743774
20
65.501625
30
5.080002
70
192
0
VERTEX
8
CHAIR
10
181.998459
20
67.300972
30
5.080002
70
192
0
VERTEX
8
CHAIR
10
181.998459
20
67.300972
30
43.180000
70
192
0
VERTEX
8
CHAIR
10
182.743774
20
65.501625
30
43.180000
70
192
0
VERTEX
8
CHAIR
10
180.199112
20
68.046288
30
5.080002
70
192
0
VERTEX
8
CHAIR
10
180.199112
20
68.046288
30
43.180000
70
192
0
VERTEX
8
CHAIR
10
178.399765
20
67.300972
30
5.080002
70
192
0
VERTEX
8
CHAIR
10
178.399765
20
67.300972
30
43.180000
70
192
0
VERTEX
8
CHAIR
10
177.654449
20
65.501625
30
5.080002
70
192
0
VERTEX
8
CHAIR
10
177.654449
20
65.501625
30
43.180000
70
192
0
VERTEX
8
CHAIR
10
178.399765
20
63.702274
30
5.080002
70
192
0
VERTEX
8
CHAIR
10
178.399765
20
63.702274
30
43.180000
70
192
0
VERTEX
8
CHAIR
10
180.199112
20
62.956959
30
5.080002
70
192
0
VERTEX
8
CHAIR
10
180.199112
20
62.956959
30
43.180000
70
192
0
VERTEX
8
CHAIR
10
181.998459
20
63.702274
30
5.080002
70
192
0
VERTEX
8
CHAIR
10
181.998459
20
63.702274
30
43.180000
70
192
0
VERTEX
8
CHAIR
10
157.799347
20
61.069263
30
66.040001
70
192
0
VERTEX
8
CHAIR
10
153.936234
20
56.029541
30
66.040001
70
192
0
VERTEX
8
CHAIR
10
153.936234
20
56.029541
30
68.580002
70
192
0
VERTEX
8
CHAIR
10
157.799347
20
61.069263
30
68.580002
70
192
0
VERTEX
8
CHAIR
10
178.000916
20
37.583160
30
66.040001
70
192
0
VERTEX
8
CHAIR
10
178.000916
20
37.583160
30
68.580002
70
192
0
VERTEX
8
CHAIR
10
181.864029
20
42.622887
30
66.040001
70
192
0
VERTEX
8
CHAIR
10
181.864029
20
42.622887
30
68.580002
70
192
0
VERTEX
8
CHAIR
10
182.523285
20
93.323509
30
66.040001
70
192
0
VERTEX
8
CHAIR
10
178.660172
20
88.283783
30
66.040001
70
192
0
VERTEX
8
CHAIR
10
178.660172
20
88.283783
30
68.580002
70
192
0
VERTEX
8
CHAIR
10
182.523285
20
93.323509
30
68.580002
70
192
0
VERTEX
8
CHAIR
10
202.724869
20
69.837402
30
66.040001
70
192
0
VERTEX
8
CHAIR
10
202.724869
20
69.837402
30
68.580002
70
192
0
VERTEX
8
CHAIR
10
206.587982
20
74.877129
30
66.040001
70
192
0
VERTEX
8
CHAIR
10
206.587982
20
74.877129
30
68.580002
70
192
0
VERTEX
8
CHAIR
10
0
20
0
30
0
70
128
71
10
72
11
73
9
0
VERTEX
8
CHAIR
10
0
20
0
30
0
70
128
71
12
72
13
73
11
0
VERTEX
8
CHAIR
10
0
20
0
30
0
70
128
71
15
72
16
73
14
0
VERTEX
8
CHAIR
10
0
20
0
30
0
70
128
71
17
72
10
73
16
0
VERTEX
8
CHAIR
10
0
20
0
30
0
70
128
71
19
72
20
73
18
0
VERTEX
8
CHAIR
10
0
20
0
30
0
70
128
71
21
72
15
73
20
0
VERTEX
8
CHAIR
10
0
20
0
30
0
70
128
71
13
72
23
73
22
0
VERTEX
8
CHAIR
10
0
20
0
30
0
70
128
71
24
72
19
73
23
0
VERTEX
8
CHAIR
10
0
20
0
30
0
70
128
71
17
72
25
73
12
0
VERTEX
8
CHAIR
10
0
20
0
30
0
70
128
71
21
72
24
73
25
0
VERTEX
8
CHAIR
10
0
20
0
30
0
70
128
71
9
72
26
73
14
0
VERTEX
8
CHAIR
10
0
20
0
30
0
70
128
71
26
72
22
73
18
0
VERTEX
8
CHAIR
10
0
20
0
30
0
70
128
71
1
72
9
73
11
0
VERTEX
8
CHAIR
10
0
20
0
30
0
70
128
71
1
72
11
73
13
0
VERTEX
8
CHAIR
10
0
20
0
30
0
70
128
71
2
72
14
73
16
0
VERTEX
8
CHAIR
10
0
20
0
30
0
70
128
71
2
72
16
73
10
0
VERTEX
8
CHAIR
10
0
20
0
30
0
70
128
71
5
72
18
73
20
0
VERTEX
8
CHAIR
10
0
20
0
30
0
70
128
71
5
72
20
73
15
0
VERTEX
8
CHAIR
10
0
20
0
30
0
70
128
71
7
72
22
73
23
0
VERTEX
8
CHAIR
10
0
20
0
30
0
70
128
71
7
72
23
73
19
0
VERTEX
8
CHAIR
10
0
20
0
30
0
70
128
71
4
72
12
73
25
0
VERTEX
8
CHAIR
10
0
20
0
30
0
70
128
71
4
72
25
73
24
0
VERTEX
8
CHAIR
10
0
20
0
30
0
70
128
71
5
72
14
73
26
0
VERTEX
8
CHAIR
10
0
20
0
30
0
70
128
71
7
72
18
73
22
0
VERTEX
8
CHAIR
10
0
20
0
30
0
70
128
71
9
72
2
73
10
0
VERTEX
8
CHAIR
10
0
20
0
30
0
70
128
71
11
72
3
73
12
0
VERTEX
8
CHAIR
10
0
20
0
30
0
70
128
71
14
72
5
73
15
0
VERTEX
8
CHAIR
10
0
20
0
30
0
70
128
71
16
72
6
73
17
0
VERTEX
8
CHAIR
10
0
20
0
30
0
70
128
71
18
72
7
73
19
0
VERTEX
8
CHAIR
10
0
20
0
30
0
70
128
71
20
72
8
73
21
0
VERTEX
8
CHAIR
10
0
20
0
30
0
70
128
71
22
72
1
73
13
0
VERTEX
8
CHAIR
10
0
20
0
30
0
70
128
71
23
72
4
73
24
0
VERTEX
8
CHAIR
10
0
20
0
30
0
70
128
71
12
72
3
73
17
0
VERTEX
8
CHAIR
10
0
20
0
30
0
70
128
71
25
72
6
73
21
0
VERTEX
8
CHAIR
10
0
20
0
30
0
70
128
71
14
72
2
73
9
0
VERTEX
8
CHAIR
10
0
20
0
30
0
70
128
71
18
72
5
73
26
0
VERTEX
8
CHAIR
10
0
20
0
30
0
70
128
71
11
72
10
73
3
0
VERTEX
8
CHAIR
10
0
20
0
30
0
70
128
71
13
72
12
73
4
0
VERTEX
8
CHAIR
10
0
20
0
30
0
70
128
71
16
72
15
73
6
0
VERTEX
8
CHAIR
10
0
20
0
30
0
70
128
71
10
72
17
73
3
0
VERTEX
8
CHAIR
10
0
20
0
30
0
70
128
71
20
72
19
73
8
0
VERTEX
8
CHAIR
10
0
20
0
30
0
70
128
71
15
72
21
73
6
0
VERTEX
8
CHAIR
10
0
20
0
30
0
70
128
71
23
72
13
73
4
0
VERTEX
8
CHAIR
10
0
20
0
30
0
70
128
71
19
72
24
73
8
0
VERTEX
8
CHAIR
10
0
20
0
30
0
70
128
71
25
72
17
73
6
0
VERTEX
8
CHAIR
10
0
20
0
30
0
70
128
71
24
72
21
73
8
0
VERTEX
8
CHAIR
10
0
20
0
30
0
70
128
71
26
72
9
73
1
0
VERTEX
8
CHAIR
10
0
20
0
30
0
70
128
71
22
72
26
73
1
0
VERTEX
8
CHAIR
10
0
20
0
30
0
70
128
71
36
72
37
73
35
0
VERTEX
8
CHAIR
10
0
20
0
30
0
70
128
71
38
72
39
73
37
0
VERTEX
8
CHAIR
10
0
20
0
30
0
70
128
71
41
72
42
73
40
0
VERTEX
8
CHAIR
10
0
20
0
30
0
70
128
71
43
72
36
73
42
0
VERTEX
8
CHAIR
10
0
20
0
30
0
70
128
71
45
72
46
73
44
0
VERTEX
8
CHAIR
10
0
20
0
30
0
70
128
71
47
72
41
73
46
0
VERTEX
8
CHAIR
10
0
20
0
30
0
70
128
71
39
72
49
73
48
0
VERTEX
8
CHAIR
10
0
20
0
30
0
70
128
71
50
72
45
73
49
0
VERTEX
8
CHAIR
10
0
20
0
30
0
70
128
71
43
72
51
73
38
0
VERTEX
8
CHAIR
10
0
20
0
30
0
70
128
71
47
72
50
73
51
0
VERTEX
8
CHAIR
10
0
20
0
30
0
70
128
71
35
72
52
73
40
0
VERTEX
8
CHAIR
10
0
20
0
30
0
70
128
71
52
72
48
73
44
0
VERTEX
8
CHAIR
10
0
20
0
30
0
70
128
71
27
72
35
73
37
0
VERTEX
8
CHAIR
10
0
20
0
30
0
70
128
71
27
72
37
73
39
0
VERTEX
8
CHAIR
10
0
20
0
30
0
70
128
71
28
72
40
73
42
0
VERTEX
8
CHAIR
10
0
20
0
30
0
70
128
71
28
72
42
73
36
0
VERTEX
8
CHAIR
10
0
20
0
30
0
70
128
71
31
72
44
73
46
0
VERTEX
8
CHAIR
10
0
20
0
30
0
70
128
71
31
72
46
73
41
0
VERTEX
8
CHAIR
10
0
20
0
30
0
70
128
71
33
72
48
73
49
0
VERTEX
8
CHAIR
10
0
20
0
30
0
70
128
71
33
72
49
73
45
0
VERTEX
8
CHAIR
10
0
20
0
30
0
70
128
71
30
72
38
73
51
0
VERTEX
8
CHAIR
10
0
20
0
30
0
70
128
71
30
72
51
73
50
0
VERTEX
8
CHAIR
10
0
20
0
30
0
70
128
71
31
72
40
73
52
0
VERTEX
8
CHAIR
10
0
20
0
30
0
70
128
71
33
72
44
73
48
0
VERTEX
8
CHAIR
10
0
20
0
30
0
70
128
71
35
72
28
73
36
0
VERTEX
8
CHAIR
10
0
20
0
30
0
70
128
71
37
72
29
73
38
0
VERTEX
8
CHAIR
10
0
20
0
30
0
70
128
71
40
72
31
73
41
0
VERTEX
8
CHAIR
10
0
20
0
30
0
70
128
71
42
72
32
73
43
0
VERTEX
8
CHAIR
10
0
20
0
30
0
70
128
71
44
72
33
73
45
0
VERTEX
8
CHAIR
10
0
20
0
30
0
70
128
71
46
72
34
73
47
0
VERTEX
8
CHAIR
10
0
20
0
30
0
70
128
71
48
72
27
73
39
0
VERTEX
8
CHAIR
10
0
20
0
30
0
70
128
71
49
72
30
73
50
0
VERTEX
8
CHAIR
10
0
20
0
30
0
70
128
71
38
72
29
73
43
0
VERTEX
8
CHAIR
10
0
20
0
30
0
70
128
71
51
72
32
73
47
0
VERTEX
8
CHAIR
10
0
20
0
30
0
70
128
71
40
72
28
73
35
0
VERTEX
8
CHAIR
10
0
20
0
30
0
70
128
71
44
72
31
73
52
0
VERTEX
8
CHAIR
10
0
20
0
30
0
70
128
71
37
72
36
73
29
0
VERTEX
8
CHAIR
10
0
20
0
30
0
70
128
71
39
72
38
73
30
0
VERTEX
8
CHAIR
10
0
20
0
30
0
70
128
71
42
72
41
73
32
0
VERTEX
8
CHAIR
10
0
20
0
30
0
70
128
71
36
72
43
73
29
0
VERTEX
8
CHAIR
10
0
20
0
30
0
70
128
71
46
72
45
73
34
0
VERTEX
8
CHAIR
10
0
20
0
30
0
70
128
71
41
72
47
73
32
0
VERTEX
8
CHAIR
10
0
20
0
30
0
70
128
71
49
72
39
73
30
0
VERTEX
8
CHAIR
10
0
20
0
30
0
70
128
71
45
72
50
73
34
0
VERTEX
8
CHAIR
10
0
20
0
30
0
70
128
71
51
72
43
73
32
0
VERTEX
8
CHAIR
10
0
20
0
30
0
70
128
71
50
72
47
73
34
0
VERTEX
8
CHAIR
10
0
20
0
30
0
70
128
71
52
72
35
73
27
0
VERTEX
8
CHAIR
10
0
20
0
30
0
70
128
71
48
72
52
73
27
0
VERTEX
8
CHAIR
10
0
20
0
30
0
70
128
71
53
72
54
73
-55
0
VERTEX
8
CHAIR
10
0
20
0
30
0
70
128
71
-53
72
55
73
56
0
VERTEX
8
CHAIR
10
0
20
0
30
0
70
128
71
54
72
57
73
-58
0
VERTEX
8
CHAIR
10
0
20
0
30
0
70
128
71
-54
72
58
73
55
0
VERTEX
8
CHAIR
10
0
20
0
30
0
70
128
71
53
72
59
73
-60
0
VERTEX
8
CHAIR
10
0
20
0
30
0
70
128
71
-53
72
60
73
56
0
VERTEX
8
CHAIR
10
0
20
0
30
0
70
128
71
59
72
57
73
-58
0
VERTEX
8
CHAIR
10
0
20
0
30
0
70
128
71
-59
72
58
73
60
0
VERTEX
8
CHAIR
10
0
20
0
30
0
70
128
71
61
72
62
73
-63
0
VERTEX
8
CHAIR
10
0
20
0
30
0
70
128
71
-61
72
63
73
64
0
VERTEX
8
CHAIR
10
0
20
0
30
0
70
128
71
65
72
61
73
-64
0
VERTEX
8
CHAIR
10
0
20
0
30
0
70
128
71
-65
72
64
73
66
0
VERTEX
8
CHAIR
10
0
20
0
30
0
70
128
71
67
72
62
73
-63
0
VERTEX
8
CHAIR
10
0
20
0
30
0
70
128
71
-67
72
63
73
68
0
VERTEX
8
CHAIR
10
0
20
0
30
0
70
128
71
65
72
67
73
-68
0
VERTEX
8
CHAIR
10
0
20
0
30
0
70
128
71
-65
72
68
73
66
0
VERTEX
8
CHAIR
10
0
20
0
30
0
70
128
71
71
72
70
73
-69
0
VERTEX
8
CHAIR
10
0
20
0
30
0
70
128
71
72
72
-71
73
69
0
VERTEX
8
CHAIR
10
0
20
0
30
0
70
128
71
72
72
69
73
-73
0
VERTEX
8
CHAIR
10
0
20
0
30
0
70
128
71
74
72
-72
73
73
0
VERTEX
8
CHAIR
10
0
20
0
30
0
70
128
71
71
72
70
73
-75
0
VERTEX
8
CHAIR
10
0
20
0
30
0
70
128
71
76
72
-71
73
75
0
VERTEX
8
CHAIR
10
0
20
0
30
0
70
128
71
76
72
75
73
-73
0
VERTEX
8
CHAIR
10
0
20
0
30
0
70
128
71
74
72
-76
73
73
0
VERTEX
8
CHAIR
10
0
20
0
30
0
70
128
71
77
72
78
73
-79
0
VERTEX
8
CHAIR
10
0
20
0
30
0
70
128
71
-77
72
79
73
80
0
VERTEX
8
CHAIR
10
0
20
0
30
0
70
128
71
81
72
77
73
-80
0
VERTEX
8
CHAIR
10
0
20
0
30
0
70
128
71
-81
72
80
73
82
0
VERTEX
8
CHAIR
10
0
20
0
30
0
70
128
71
83
72
78
73
-79
0
VERTEX
8
CHAIR
10
0
20
0
30
0
70
128
71
-83
72
79
73
84
0
VERTEX
8
CHAIR
10
0
20
0
30
0
70
128
71
81
72
83
73
-84
0
VERTEX
8
CHAIR
10
0
20
0
30
0
70
128
71
-81
72
84
73
82
0
VERTEX
8
CHAIR
10
0
20
0
30
0
70
128
71
85
72
86
73
-87
0
VERTEX
8
CHAIR
10
0
20
0
30
0
70
128
71
-85
72
87
73
88
0
VERTEX
8
CHAIR
10
0
20
0
30
0
70
128
71
89
72
85
73
-88
0
VERTEX
8
CHAIR
10
0
20
0
30
0
70
128
71
-89
72
88
73
90
0
VERTEX
8
CHAIR
10
0
20
0
30
0
70
128
71
91
72
86
73
-87
0
VERTEX
8
CHAIR
10
0
20
0
30
0
70
128
71
-91
72
87
73
92
0
VERTEX
8
CHAIR
10
0
20
0
30
0
70
128
71
89
72
91
73
-92
0
VERTEX
8
CHAIR
10
0
20
0
30
0
70
128
71
-89
72
92
73
90
0
VERTEX
8
CHAIR
10
0
20
0
30
0
70
128
71
93
72
94
73
-95
0
VERTEX
8
CHAIR
10
0
20
0
30
0
70
128
71
-93
72
95
73
96
0
VERTEX
8
CHAIR
10
0
20
0
30
0
70
128
71
94
72
97
73
-98
0
VERTEX
8
CHAIR
10
0
20
0
30
0
70
128
71
-94
72
98
73
95
0
VERTEX
8
CHAIR
10
0
20
0
30
0
70
128
71
97
72
99
73
-100
0
VERTEX
8
CHAIR
10
0
20
0
30
0
70
128
71
-97
72
100
73
98
0
VERTEX
8
CHAIR
10
0
20
0
30
0
70
128
71
99
72
93
73
-96
0
VERTEX
8
CHAIR
10
0
20
0
30
0
70
128
71
-99
72
96
73
100
0
VERTEX
8
CHAIR
10
0
20
0
30
0
70
128
71
96
72
95
73
-98
0
VERTEX
8
CHAIR
10
0
20
0
30
0
70
128
71
-96
72
98
73
100
0
VERTEX
8
CHAIR
10
0
20
0
30
0
70
128
71
97
72
94
73
-93
0
VERTEX
8
CHAIR
10
0
20
0
30
0
70
128
71
99
72
-97
73
93
0
VERTEX
8
CHAIR
10
0
20
0
30
0
70
128
71
101
72
102
73
-103
0
VERTEX
8
CHAIR
10
0
20
0
30
0
70
128
71
-101
72
103
73
104
0
VERTEX
8
CHAIR
10
0
20
0
30
0
70
128
71
102
72
105
73
-106
0
VERTEX
8
CHAIR
10
0
20
0
30
0
70
128
71
-102
72
106
73
103
0
VERTEX
8
CHAIR
10
0
20
0
30
0
70
128
71
105
72
107
73
-108
0
VERTEX
8
CHAIR
10
0
20
0
30
0
70
128
71
-105
72
108
73
106
0
VERTEX
8
CHAIR
10
0
20
0
30
0
70
128
71
107
72
101
73
-104
0
VERTEX
8
CHAIR
10
0
20
0
30
0
70
128
71
-107
72
104
73
108
0
VERTEX
8
CHAIR
10
0
20
0
30
0
70
128
71
104
72
103
73
-106
0
VERTEX
8
CHAIR
10
0
20
0
30
0
70
128
71
-104
72
106
73
108
0
VERTEX
8
CHAIR
10
0
20
0
30
0
70
128
71
105
72
102
73
-101
0
VERTEX
8
CHAIR
10
0
20
0
30
0
70
128
71
107
72
-105
73
101
0
VERTEX
8
CHAIR
10
0
20
0
30
0
70
128
71
109
72
110
73
-111
0
VERTEX
8
CHAIR
10
0
20
0
30
0
70
128
71
-109
72
111
73
112
0
VERTEX
8
CHAIR
10
0
20
0
30
0
70
128
71
110
72
113
73
-114
0
VERTEX
8
CHAIR
10
0
20
0
30
0
70
128
71
-110
72
114
73
111
0
VERTEX
8
CHAIR
10
0
20
0
30
0
70
128
71
113
72
115
73
-116
0
VERTEX
8
CHAIR
10
0
20
0
30
0
70
128
71
-113
72
116
73
114
0
VERTEX
8
CHAIR
10
0
20
0
30
0
70
128
71
115
72
109
73
-112
0
VERTEX
8
CHAIR
10
0
20
0
30
0
70
128
71
-115
72
112
73
116
0
VERTEX
8
CHAIR
10
0
20
0
30
0
70
128
71
112
72
111
73
-114
0
VERTEX
8
CHAIR
10
0
20
0
30
0
70
128
71
-112
72
114
73
116
0
VERTEX
8
CHAIR
10
0
20
0
30
0
70
128
71
113
72
110
73
-109
0
VERTEX
8
CHAIR
10
0
20
0
30
0
70
128
71
115
72
-113
73
109
0
VERTEX
8
CHAIR
10
0
20
0
30
0
70
128
71
117
72
118
73
-119
0
VERTEX
8
CHAIR
10
0
20
0
30
0
70
128
71
-117
72
119
73
120
0
VERTEX
8
CHAIR
10
0
20
0
30
0
70
128
71
118
72
121
73
-122
0
VERTEX
8
CHAIR
10
0
20
0
30
0
70
128
71
-118
72
122
73
119
0
VERTEX
8
CHAIR
10
0
20
0
30
0
70
128
71
121
72
123
73
-124
0
VERTEX
8
CHAIR
10
0
20
0
30
0
70
128
71
-121
72
124
73
122
0
VERTEX
8
CHAIR
10
0
20
0
30
0
70
128
71
123
72
117
73
-120
0
VERTEX
8
CHAIR
10
0
20
0
30
0
70
128
71
-123
72
120
73
124
0
VERTEX
8
CHAIR
10
0
20
0
30
0
70
128
71
120
72
119
73
-122
0
VERTEX
8
CHAIR
10
0
20
0
30
0
70
128
71
-120
72
122
73
124
0
VERTEX
8
CHAIR
10
0
20
0
30
0
70
128
71
121
72
118
73
-117
0
VERTEX
8
CHAIR
10
0
20
0
30
0
70
128
71
123
72
-121
73
117
0
VERTEX
8
CHAIR
10
0
20
0
30
0
70
128
71
125
72
126
73
-127
0
VERTEX
8
CHAIR
10
0
20
0
30
0
70
128
71
-125
72
127
73
128
0
VERTEX
8
CHAIR
10
0
20
0
30
0
70
128
71
126
72
129
73
-130
0
VERTEX
8
CHAIR
10
0
20
0
30
0
70
128
71
-126
72
130
73
127
0
VERTEX
8
CHAIR
10
0
20
0
30
0
70
128
71
129
72
131
73
-132
0
VERTEX
8
CHAIR
10
0
20
0
30
0
70
128
71
-129
72
132
73
130
0
VERTEX
8
CHAIR
10
0
20
0
30
0
70
128
71
131
72
125
73
-128
0
VERTEX
8
CHAIR
10
0
20
0
30
0
70
128
71
-131
72
128
73
132
0
VERTEX
8
CHAIR
10
0
20
0
30
0
70
128
71
128
72
127
73
-130
0
VERTEX
8
CHAIR
10
0
20
0
30
0
70
128
71
-128
72
130
73
132
0
VERTEX
8
CHAIR
10
0
20
0
30
0
70
128
71
129
72
126
73
-125
0
VERTEX
8
CHAIR
10
0
20
0
30
0
70
128
71
131
72
-129
73
125
0
VERTEX
8
CHAIR
10
0
20
0
30
0
70
128
71
135
72
134
73
-133
0
VERTEX
8
CHAIR
10
0
20
0
30
0
70
128
71
136
72
-135
73
133
0
VERTEX
8
CHAIR
10
0
20
0
30
0
70
128
71
138
72
137
73
-134
0
VERTEX
8
CHAIR
10
0
20
0
30
0
70
128
71
135
72
-138
73
134
0
VERTEX
8
CHAIR
10
0
20
0
30
0
70
128
71
133
72
139
73
-140
0
VERTEX
8
CHAIR
10
0
20
0
30
0
70
128
71
-133
72
140
73
136
0
VERTEX
8
CHAIR
10
0
20
0
30
0
70
128
71
139
72
137
73
-138
0
VERTEX
8
CHAIR
10
0
20
0
30
0
70
128
71
-139
72
138
73
140
0
VERTEX
8
CHAIR
10
0
20
0
30
0
70
128
71
141
72
142
73
-143
0
VERTEX
8
CHAIR
10
0
20
0
30
0
70
128
71
-141
72
143
73
144
0
VERTEX
8
CHAIR
10
0
20
0
30
0
70
128
71
145
72
141
73
-144
0
VERTEX
8
CHAIR
10
0
20
0
30
0
70
128
71
-145
72
144
73
146
0
VERTEX
8
CHAIR
10
0
20
0
30
0
70
128
71
143
72
142
73
-147
0
VERTEX
8
CHAIR
10
0
20
0
30
0
70
128
71
148
72
-143
73
147
0
VERTEX
8
CHAIR
10
0
20
0
30
0
70
128
71
148
72
147
73
-145
0
VERTEX
8
CHAIR
10
0
20
0
30
0
70
128
71
146
72
-148
73
145
0
VERTEX
8
CHAIR
10
0
20
0
30
0
70
128
71
149
72
150
73
-151
0
VERTEX
8
CHAIR
10
0
20
0
30
0
70
128
71
-149
72
151
73
152
0
VERTEX
8
CHAIR
10
0
20
0
30
0
70
128
71
150
72
153
73
-154
0
VERTEX
8
CHAIR
10
0
20
0
30
0
70
128
71
-150
72
154
73
151
0
VERTEX
8
CHAIR
10
0
20
0
30
0
70
128
71
153
72
155
73
-156
0
VERTEX
8
CHAIR
10
0
20
0
30
0
70
128
71
-153
72
156
73
154
0
VERTEX
8
CHAIR
10
0
20
0
30
0
70
128
71
155
72
157
73
-158
0
VERTEX
8
CHAIR
10
0
20
0
30
0
70
128
71
-155
72
158
73
156
0
VERTEX
8
CHAIR
10
0
20
0
30
0
70
128
71
157
72
159
73
-160
0
VERTEX
8
CHAIR
10
0
20
0
30
0
70
128
71
-157
72
160
73
158
0
VERTEX
8
CHAIR
10
0
20
0
30
0
70
128
71
159
72
161
73
-162
0
VERTEX
8
CHAIR
10
0
20
0
30
0
70
128
71
-159
72
162
73
160
0
VERTEX
8
CHAIR
10
0
20
0
30
0
70
128
71
161
72
163
73
-164
0
VERTEX
8
CHAIR
10
0
20
0
30
0
70
128
71
-161
72
164
73
162
0
VERTEX
8
CHAIR
10
0
20
0
30
0
70
128
71
163
72
149
73
-152
0
VERTEX
8
CHAIR
10
0
20
0
30
0
70
128
71
-163
72
152
73
164
0
VERTEX
8
CHAIR
10
0
20
0
30
0
70
128
71
152
72
151
73
-154
0
VERTEX
8
CHAIR
10
0
20
0
30
0
70
128
71
-152
72
154
73
-156
0
VERTEX
8
CHAIR
10
0
20
0
30
0
70
128
71
-152
72
156
73
-158
0
VERTEX
8
CHAIR
10
0
20
0
30
0
70
128
71
-152
72
158
73
-160
0
VERTEX
8
CHAIR
10
0
20
0
30
0
70
128
71
-152
72
160
73
-162
0
VERTEX
8
CHAIR
10
0
20
0
30
0
70
128
71
-152
72
162
73
164
0
VERTEX
8
CHAIR
10
0
20
0
30
0
70
128
71
153
72
150
73
-149
0
VERTEX
8
CHAIR
10
0
20
0
30
0
70
128
71
155
72
-153
73
-149
0
VERTEX
8
CHAIR
10
0
20
0
30
0
70
128
71
157
72
-155
73
-149
0
VERTEX
8
CHAIR
10
0
20
0
30
0
70
128
71
159
72
-157
73
-149
0
VERTEX
8
CHAIR
10
0
20
0
30
0
70
128
71
161
72
-159
73
-149
0
VERTEX
8
CHAIR
10
0
20
0
30
0
70
128
71
163
72
-161
73
149
0
VERTEX
8
CHAIR
10
0
20
0
30
0
70
128
71
165
72
166
73
-167
0
VERTEX
8
CHAIR
10
0
20
0
30
0
70
128
71
-165
72
167
73
168
0
VERTEX
8
CHAIR
10
0
20
0
30
0
70
128
71
166
72
169
73
-170
0
VERTEX
8
CHAIR
10
0
20
0
30
0
70
128
71
-166
72
170
73
167
0
VERTEX
8
CHAIR
10
0
20
0
30
0
70
128
71
169
72
171
73
-172
0
VERTEX
8
CHAIR
10
0
20
0
30
0
70
128
71
-169
72
172
73
170
0
VERTEX
8
CHAIR
10
0
20
0
30
0
70
128
71
171
72
165
73
-168
0
VERTEX
8
CHAIR
10
0
20
0
30
0
70
128
71
-171
72
168
73
172
0
VERTEX
8
CHAIR
10
0
20
0
30
0
70
128
71
168
72
167
73
-170
0
VERTEX
8
CHAIR
10
0
20
0
30
0
70
128
71
-168
72
170
73
172
0
VERTEX
8
CHAIR
10
0
20
0
30
0
70
128
71
169
72
166
73
-165
0
VERTEX
8
CHAIR
10
0
20
0
30
0
70
128
71
171
72
-169
73
165
0
VERTEX
8
CHAIR
10
0
20
0
30
0
70
128
71
173
72
174
73
-175
0
VERTEX
8
CHAIR
10
0
20
0
30
0
70
128
71
-173
72
175
73
176
0
VERTEX
8
CHAIR
10
0
20
0
30
0
70
128
71
174
72
177
73
-178
0
VERTEX
8
CHAIR
10
0
20
0
30
0
70
128
71
-174
72
178
73
175
0
VERTEX
8
CHAIR
10
0
20
0
30
0
70
128
71
177
72
179
73
-180
0
VERTEX
8
CHAIR
10
0
20
0
30
0
70
128
71
-177
72
180
73
178
0
VERTEX
8
CHAIR
10
0
20
0
30
0
70
128
71
179
72
173
73
-176
0
VERTEX
8
CHAIR
10
0
20
0
30
0
70
128
71
-179
72
176
73
180
0
VERTEX
8
CHAIR
10
0
20
0
30
0
70
128
71
176
72
175
73
-178
0
VERTEX
8
CHAIR
10
0
20
0
30
0
70
128
71
-176
72
178
73
180
0
VERTEX
8
CHAIR
10
0
20
0
30
0
70
128
71
177
72
174
73
-173
0
VERTEX
8
CHAIR
10
0
20
0
30
0
70
128
71
179
72
-177
73
173
0
SEQEND
8
CHAIR
0
POLYLINE
8
DESK
66
1
70
64
71
28
72
36
0
VERTEX
8
DESK
10
57.718811
20
251.771240
30
66.040001
70
192
0
VERTEX
8
DESK
10
241.681885
20
251.771240
30
66.040001
70
192
0
VERTEX
8
DESK
10
241.681885
20
251.771179
30
68.580002
70
192
0
VERTEX
8
DESK
10
57.718811
20
251.771179
30
68.580002
70
192
0
VERTEX
8
DESK
10
210.118820
20
175.571228
30
66.039993
70
192
0
VERTEX
8
DESK
10
210.118820
20
175.571167
30
68.579994
70
192
0
VERTEX
8
DESK
10
57.718811
20
175.571228
30
66.039993
70
192
0
VERTEX
8
DESK
10
57.718811
20
175.571167
30
68.579994
70
192
0
VERTEX
8
DESK
10
241.681885
20
251.771240
30
66.040001
70
192
0
VERTEX
8
DESK
10
241.681885
20
251.771179
30
68.580002
70
192
0
VERTEX
8
DESK
10
210.118820
20
175.571228
30
66.039993
70
192
0
VERTEX
8
DESK
10
210.118820
20
175.571167
30
68.579994
70
192
0
VERTEX
8
DESK
10
329.424042
20
164.029083
30
66.039993
70
192
0
VERTEX
8
DESK
10
329.424042
20
164.029022
30
68.579994
70
192
0
VERTEX
8
DESK
10
253.224045
20
132.466003
30
66.039993
70
192
0
VERTEX
8
DESK
10
253.224045
20
132.465942
30
68.579994
70
192
0
VERTEX
8
DESK
10
329.424042
20
164.029083
30
66.039993
70
192
0
VERTEX
8
DESK
10
329.424042
20
164.029022
30
68.579994
70
192
0
VERTEX
8
DESK
10
253.224045
20
132.466003
30
66.039993
70
192
0
VERTEX
8
DESK
10
253.224045
20
132.465942
30
68.579994
70
192
0
VERTEX
8
DESK
10
329.424042
20
164.029083
30
66.039993
70
192
0
VERTEX
8
DESK
10
329.424042
20
164.029022
30
68.579994
70
192
0
VERTEX
8
DESK
10
253.224045
20
132.466003
30
66.039993
70
192
0
VERTEX
8
DESK
10
253.224045
20
132.465942
30
68.579994
70
192
0
VERTEX
8
DESK
10
329.424042
20
71.505951
30
66.039986
70
192
0
VERTEX
8
DESK
10
329.424042
20
71.505951
30
68.579987
70
192
0
VERTEX
8
DESK
10
253.224045
20
71.505951
30
66.039986
70
192
0
VERTEX
8
DESK
10
253.224045
20
71.505951
30
68.579987
70
192
0
VERTEX
8
DESK
10
0
20
0
30
0
70
128
71
3
72
2
73
-1
0
VERTEX
8
DESK
10
0
20
0
30
0
70
128
71
4
72
-3
73
1
0
VERTEX
8
DESK
10
0
20
0
30
0
70
128
71
8
72
7
73
-5
0
VERTEX
8
DESK
10
0
20
0
30
0
70
128
71
6
72
-8
73
5
0
VERTEX
8
DESK
10
0
20
0
30
0
70
128
71
4
72
1
73
-7
0
VERTEX
8
DESK
10
0
20
0
30
0
70
128
71
8
72
-4
73
7
0
VERTEX
8
DESK
10
0
20
0
30
0
70
128
71
6
72
3
73
-4
0
VERTEX
8
DESK
10
0
20
0
30
0
70
128
71
8
72
-6
73
4
0
VERTEX
8
DESK
10
0
20
0
30
0
70
128
71
1
72
2
73
-5
0
VERTEX
8
DESK
10
0
20
0
30
0
70
128
71
-1
72
5
73
7
0
VERTEX
8
DESK
10
0
20
0
30
0
70
128
71
9
72
11
73
-12
0
VERTEX
8
DESK
10
0
20
0
30
0
70
128
71
-9
72
12
73
10
0
VERTEX
8
DESK
10
0
20
0
30
0
70
128
71
14
72
13
73
-9
0
VERTEX
8
DESK
10
0
20
0
30
0
70
128
71
10
72
-14
73
9
0
VERTEX
8
DESK
10
0
20
0
30
0
70
128
71
12
72
11
73
-15
0
VERTEX
8
DESK
10
0
20
0
30
0
70
128
71
16
72
-12
73
15
0
VERTEX
8
DESK
10
0
20
0
30
0
70
128
71
11
72
9
73
-10
0
VERTEX
8
DESK
10
0
20
0
30
0
70
128
71
-11
72
10
73
12
0
VERTEX
8
DESK
10
0
20
0
30
0
70
128
71
16
72
14
73
-10
0
VERTEX
8
DESK
10
0
20
0
30
0
70
128
71
12
72
-16
73
10
0
VERTEX
8
DESK
10
0
20
0
30
0
70
128
71
9
72
13
73
-15
0
VERTEX
8
DESK
10
0
20
0
30
0
70
128
71
-9
72
15
73
11
0
VERTEX
8
DESK
10
0
20
0
30
0
70
128
71
17
72
19
73
-20
0
VERTEX
8
DESK
10
0
20
0
30
0
70
128
71
-17
72
20
73
18
0
VERTEX
8
DESK
10
0
20
0
30
0
70
128
71
19
72
17
73
-18
0
VERTEX
8
DESK
10
0
20
0
30
0
70
128
71
-19
72
18
73
20
0
VERTEX
8
DESK
10
0
20
0
30
0
70
128
71
26
72
25
73
-21
0
VERTEX
8
DESK
10
0
20
0
30
0
70
128
71
22
72
-26
73
21
0
VERTEX
8
DESK
10
0
20
0
30
0
70
128
71
28
72
27
73
-25
0
VERTEX
8
DESK
10
0
20
0
30
0
70
128
71
26
72
-28
73
25
0
VERTEX
8
DESK
10
0
20
0
30
0
70
128
71
24
72
23
73
-27
0
VERTEX
8
DESK
10
0
20
0
30
0
70
128
71
28
72
-24
73
27
0
VERTEX
8
DESK
10
0
20
0
30
0
70
128
71
28
72
26
73
-22
0
VERTEX
8
DESK
10
0
20
0
30
0
70
128
71
24
72
-28
73
22
0
VERTEX
8
DESK
10
0
20
0
30
0
70
128
71
21
72
25
73
-27
0
VERTEX
8
DESK
10
0
20
0
30
0
70
128
71
-21
72
27
73
23
0
SEQEND
8
DESK
0
POLYLINE
8
LITESTAN01
66
1
70
64
71
22
72
40
0
VERTEX
8
LITESTAN01
10
30.733238
20
230.742798
30
0.281387
70
192
0
VERTEX
8
LITESTAN01
10
32.231430
20
232.406677
30
0.281387
70
192
0
VERTEX
8
LITESTAN01
10
32.465469
20
234.633423
30
0.281387
70
192
0
VERTEX
8
LITESTAN01
10
31.345963
20
236.572479
30
0.281388
70
192
0
VERTEX
8
LITESTAN01
10
29.300518
20
237.483185
30
0.281388
70
192
0
VERTEX
8
LITESTAN01
10
27.110432
20
237.017639
30
0.281388
70
192
0
VERTEX
8
LITESTAN01
10
25.612240
20
235.353729
30
0.281387
70
192
0
VERTEX
8
LITESTAN01
10
25.378201
20
233.126984
30
0.281387
70
192
0
VERTEX
8
LITESTAN01
10
26.497711
20
231.187927
30
0.281387
70
192
0
VERTEX
8
LITESTAN01
10
28.543159
20
230.277252
30
0.281387
70
192
0
VERTEX
8
LITESTAN01
10
30.733238
20
230.742798
30
114.279434
70
192
0
VERTEX
8
LITESTAN01
10
32.231430
20
232.406677
30
114.279434
70
192
0
VERTEX
8
LITESTAN01
10
32.465469
20
234.633423
30
114.279434
70
192
0
VERTEX
8
LITESTAN01
10
31.345963
20
236.572479
30
114.279434
70
192
0
VERTEX
8
LITESTAN01
10
29.300518
20
237.483185
30
114.279434
70
192
0
VERTEX
8
LITESTAN01
10
27.110432
20
237.017639
30
114.279434
70
192
0
VERTEX
8
LITESTAN01
10
25.612240
20
235.353729
30
114.279434
70
192
0
VERTEX
8
LITESTAN01
10
25.378201
20
233.126984
30
114.279434
70
192
0
VERTEX
8
LITESTAN01
10
26.497711
20
231.187927
30
114.279434
70
192
0
VERTEX
8
LITESTAN01
10
28.543159
20
230.277252
30
114.279434
70
192
0
VERTEX
8
LITESTAN01
10
28.921837
20
233.880219
30
114.279434
70
192
0
VERTEX
8
LITESTAN01
10
28.921837
20
233.880219
30
0.281387
70
192
0
VERTEX
8
LITESTAN01
10
0
20
0
30
0
70
128
71
1
72
2
73
-12
0
VERTEX
8
LITESTAN01
10
0
20
0
30
0
70
128
71
-1
72
12
73
11
0
VERTEX
8
LITESTAN01
10
0
20
0
30
0
70
128
71
2
72
3
73
-13
0
VERTEX
8
LITESTAN01
10
0
20
0
30
0
70
128
71
-2
72
13
73
12
0
VERTEX
8
LITESTAN01
10
0
20
0
30
0
70
128
71
3
72
4
73
-14
0
VERTEX
8
LITESTAN01
10
0
20
0
30
0
70
128
71
-3
72
14
73
13
0
VERTEX
8
LITESTAN01
10
0
20
0
30
0
70
128
71
4
72
5
73
-15
0
VERTEX
8
LITESTAN01
10
0
20
0
30
0
70
128
71
-4
72
15
73
14
0
VERTEX
8
LITESTAN01
10
0
20
0
30
0
70
128
71
5
72
6
73
-16
0
VERTEX
8
LITESTAN01
10
0
20
0
30
0
70
128
71
-5
72
16
73
15
0
VERTEX
8
LITESTAN01
10
0
20
0
30
0
70
128
71
6
72
7
73
-17
0
VERTEX
8
LITESTAN01
10
0
20
0
30
0
70
128
71
-6
72
17
73
16
0
VERTEX
8
LITESTAN01
10
0
20
0
30
0
70
128
71
7
72
8
73
-18
0
VERTEX
8
LITESTAN01
10
0
20
0
30
0
70
128
71
-7
72
18
73
17
0
VERTEX
8
LITESTAN01
10
0
20
0
30
0
70
128
71
8
72
9
73
-19
0
VERTEX
8
LITESTAN01
10
0
20
0
30
0
70
128
71
-8
72
19
73
18
0
VERTEX
8
LITESTAN01
10
0
20
0
30
0
70
128
71
9
72
10
73
-20
0
VERTEX
8
LITESTAN01
10
0
20
0
30
0
70
128
71
-9
72
20
73
19
0
VERTEX
8
LITESTAN01
10
0
20
0
30
0
70
128
71
10
72
1
73
-11
0
VERTEX
8
LITESTAN01
10
0
20
0
30
0
70
128
71
-10
72
11
73
20
0
VERTEX
8
LITESTAN01
10
0
20
0
30
0
70
128
71
2
72
-1
73
-22
0
VERTEX
8
LITESTAN01
10
0
20
0
30
0
70
128
71
3
72
-2
73
-22
0
VERTEX
8
LITESTAN01
10
0
20
0
30
0
70
128
71
4
72
-3
73
-22
0
VERTEX
8
LITESTAN01
10
0
20
0
30
0
70
128
71
5
72
-4
73
-22
0
VERTEX
8
LITESTAN01
10
0
20
0
30
0
70
128
71
6
72
-5
73
-22
0
VERTEX
8
LITESTAN01
10
0
20
0
30
0
70
128
71
7
72
-6
73
-22
0
VERTEX
8
LITESTAN01
10
0
20
0
30
0
70
128
71
8
72
-7
73
-22
0
VERTEX
8
LITESTAN01
10
0
20
0
30
0
70
128
71
9
72
-8
73
-22
0
VERTEX
8
LITESTAN01
10
0
20
0
30
0
70
128
71
10
72
-9
73
-22
0
VERTEX
8
LITESTAN01
10
0
20
0
30
0
70
128
71
1
72
-10
73
-22
0
VERTEX
8
LITESTAN01
10
0
20
0
30
0
70
128
71
11
72
-12
73
-21
0
VERTEX
8
LITESTAN01
10
0
20
0
30
0
70
128
71
12
72
-13
73
-21
0
VERTEX
8
LITESTAN01
10
0
20
0
30
0
70
128
71
13
72
-14
73
-21
0
VERTEX
8
LITESTAN01
10
0
20
0
30
0
70
128
71
14
72
-15
73
-21
0
VERTEX
8
LITESTAN01
10
0
20
0
30
0
70
128
71
15
72
-16
73
-21
0
VERTEX
8
LITESTAN01
10
0
20
0
30
0
70
128
71
16
72
-17
73
-21
0
VERTEX
8
LITESTAN01
10
0
20
0
30
0
70
128
71
17
72
-18
73
-21
0
VERTEX
8
LITESTAN01
10
0
20
0
30
0
70
128
71
18
72
-19
73
-21
0
VERTEX
8
LITESTAN01
10
0
20
0
30
0
70
128
71
19
72
-20
73
-21
0
VERTEX
8
LITESTAN01
10
0
20
0
30
0
70
128
71
20
72
-11
73
-21
0
SEQEND
8
LITESTAN01
0
POLYLINE
8
LITE
66
1
70
64
71
257
72
480
0
VERTEX
8
LITE
10
28.921839
20
233.880219
30
114.279434
70
192
0
VERTEX
8
LITE
10
25.911245
20
233.073532
30
114.586411
70
192
0
VERTEX
8
LITE
10
25.811716
20
233.676376
30
114.586411
70
192
0
VERTEX
8
LITE
10
25.831709
20
234.287048
30
114.586411
70
192
0
VERTEX
8
LITE
10
25.970451
20
234.882080
30
114.586411
70
192
0
VERTEX
8
LITE
10
26.222616
20
235.438614
30
114.586411
70
192
0
VERTEX
8
LITE
10
26.578508
20
235.935272
30
114.586411
70
192
0
VERTEX
8
LITE
10
27.024456
20
236.352936
30
114.586411
70
192
0
VERTEX
8
LITE
10
27.543318
20
236.675583
30
114.586411
70
192
0
VERTEX
8
LITE
10
28.115156
20
236.890808
30
114.586411
70
192
0
VERTEX
8
LITE
10
28.717993
20
236.990341
30
114.586411
70
192
0
VERTEX
8
LITE
10
29.328665
20
236.970352
30
114.586411
70
192
0
VERTEX
8
LITE
10
29.923700
20
236.831604
30
114.586411
70
192
0
VERTEX
8
LITE
10
30.480236
20
236.579437
30
114.586411
70
192
0
VERTEX
8
LITE
10
30.976885
20
236.223557
30
114.586411
70
192
0
VERTEX
8
LITE
10
31.394556
20
235.777603
30
114.586411
70
192
0
VERTEX
8
LITE
10
31.717205
20
235.258743
30
114.586411
70
192
0
VERTEX
8
LITE
10
31.932428
20
234.686905
30
114.586411
70
192
0
VERTEX
8
LITE
10
32.031960
20
234.084076
30
114.586411
70
192
0
VERTEX
8
LITE
10
32.011971
20
233.473404
30
114.586411
70
192
0
VERTEX
8
LITE
10
31.873226
20
232.878372
30
114.586411
70
192
0
VERTEX
8
LITE
10
31.621065
20
232.321823
30
114.586411
70
192
0
VERTEX
8
LITE
10
31.265175
20
231.825180
30
114.586411
70
192
0
VERTEX
8
LITE
10
30.819231
20
231.407501
30
114.586411
70
192
0
VERTEX
8
LITE
10
30.300371
20
231.084854
30
114.586411
70
192
0
VERTEX
8
LITE
10
29.728539
20
230.869629
30
114.586411
70
192
0
VERTEX
8
LITE
10
29.125702
20
230.770096
30
114.586411
70
192
0
VERTEX
8
LITE
10
28.515032
20
230.790085
30
114.586411
70
192
0
VERTEX
8
LITE
10
27.919994
20
230.928833
30
114.586411
70
192
0
VERTEX
8
LITE
10
27.363459
20
231.180984
30
114.586411
70
192
0
VERTEX
8
LITE
10
26.866808
20
231.536880
30
114.586411
70
192
0
VERTEX
8
LITE
10
26.449133
20
231.982819
30
114.586411
70
192
0
VERTEX
8
LITE
10
26.126480
20
232.501678
30
114.586411
70
192
0
VERTEX
8
LITE
10
23.016348
20
232.297852
30
115.495544
70
192
0
VERTEX
8
LITE
10
22.821115
20
233.480362
30
115.495544
70
192
0
VERTEX
8
LITE
10
22.860331
20
234.678238
30
115.495544
70
192
0
VERTEX
8
LITE
10
23.132486
20
235.845444
30
115.495544
70
192
0
VERTEX
8
LITE
10
23.627123
20
236.937134
30
115.495544
70
192
0
VERTEX
8
LITE
10
24.325232
20
237.911346
30
115.495544
70
192
0
VERTEX
8
LITE
10
25.199987
20
238.730637
30
115.495544
70
192
0
VERTEX
8
LITE
10
26.217772
20
239.363525
30
115.495544
70
192
0
VERTEX
8
LITE
10
27.339472
20
239.785706
30
115.495544
70
192
0
VERTEX
8
LITE
10
28.521982
20
239.980942
30
115.495544
70
192
0
VERTEX
8
LITE
10
29.719858
20
239.941727
30
115.495544
70
192
0
VERTEX
8
LITE
10
30.887062
20
239.669571
30
115.495544
70
192
0
VERTEX
8
LITE
10
31.978745
20
239.174942
30
115.495544
70
192
0
VERTEX
8
LITE
10
32.952957
20
238.476822
30
115.495544
70
192
0
VERTEX
8
LITE
10
33.772255
20
237.602081
30
115.495544
70
192
0
VERTEX
8
LITE
10
34.405151
20
236.584290
30
115.495544
70
192
0
VERTEX
8
LITE
10
34.827328
20
235.462601
30
115.495544
70
192
0
VERTEX
8
LITE
10
35.022564
20
234.280090
30
115.495544
70
192
0
VERTEX
8
LITE
10
34.983353
20
233.082214
30
115.495544
70
192
0
VERTEX
8
LITE
10
34.711201
20
231.915009
30
115.495544
70
192
0
VERTEX
8
LITE
10
34.216568
20
230.823334
30
115.495544
70
192
0
VERTEX
8
LITE
10
33.518463
20
229.849121
30
115.495544
70
192
0
VERTEX
8
LITE
10
32.643715
20
229.029816
30
115.495544
70
192
0
VERTEX
8
LITE
10
31.625931
20
228.396912
30
115.495544
70
192
0
VERTEX
8
LITE
10
30.504236
20
227.974731
30
115.495544
70
192
0
VERTEX
8
LITE
10
29.321732
20
227.779495
30
115.495544
70
192
0
VERTEX
8
LITE
10
28.123857
20
227.818710
30
115.495544
70
192
0
VERTEX
8
LITE
10
26.956652
20
228.090851
30
115.495544
70
192
0
VERTEX
8
LITE
10
25.864965
20
228.585480
30
115.495544
70
192
0
VERTEX
8
LITE
10
24.890753
20
229.283585
30
115.495544
70
192
0
VERTEX
8
LITE
10
24.071451
20
230.158325
30
115.495544
70
192
0
VERTEX
8
LITE
10
23.438547
20
231.176102
30
115.495544
70
192
0
VERTEX
8
LITE
10
20.348396
20
231.582977
30
116.971909
70
192
0
VERTEX
8
LITE
10
20.064964
20
233.299713
30
116.971909
70
192
0
VERTEX
8
LITE
10
20.121895
20
235.038757
30
116.971909
70
192
0
VERTEX
8
LITE
10
20.517002
20
236.733276
30
116.971909
70
192
0
VERTEX
8
LITE
10
21.235102
20
238.318161
30
116.971909
70
192
0
VERTEX
8
LITE
10
22.248602
20
239.732498
30
116.971909
70
192
0
VERTEX
8
LITE
10
23.518549
20
240.921936
30
116.971909
70
192
0
VERTEX
8
LITE
10
24.996141
20
241.840759
30
116.971909
70
192
0
VERTEX
8
LITE
10
26.624599
20
242.453659
30
116.971909
70
192
0
VERTEX
8
LITE
10
28.341337
20
242.737091
30
116.971909
70
192
0
VERTEX
8
LITE
10
30.080383
20
242.680161
30
116.971909
70
192
0
VERTEX
8
LITE
10
31.774900
20
242.285049
30
116.971909
70
192
0
VERTEX
8
LITE
10
33.359783
20
241.566956
30
116.971909
70
192
0
VERTEX
8
LITE
10
34.774117
20
240.553467
30
116.971909
70
192
0
VERTEX
8
LITE
10
35.963547
20
239.283524
30
116.971909
70
192
0
VERTEX
8
LITE
10
36.882374
20
237.805923
30
116.971909
70
192
0
VERTEX
8
LITE
10
37.495281
20
236.177475
30
116.971909
70
192
0
VERTEX
8
LITE
10
37.778717
20
234.460739
30
116.971909
70
192
0
VERTEX
8
LITE
10
37.721790
20
232.721695
30
116.971909
70
192
0
VERTEX
8
LITE
10
37.326687
20
231.027176
30
116.971909
70
192
0
VERTEX
8
LITE
10
36.608593
20
229.442307
30
116.971909
70
192
0
VERTEX
8
LITE
10
35.595100
20
228.027969
30
116.971909
70
192
0
VERTEX
8
LITE
10
34.325161
20
226.838531
30
116.971909
70
192
0
VERTEX
8
LITE
10
32.847576
20
225.919693
30
116.971909
70
192
0
VERTEX
8
LITE
10
31.219126
20
225.306793
30
116.971909
70
192
0
VERTEX
8
LITE
10
29.502394
20
225.023346
30
116.971909
70
192
0
VERTEX
8
LITE
10
27.763351
20
225.080261
30
116.971909
70
192
0
VERTEX
8
LITE
10
26.068829
20
225.475357
30
116.971909
70
192
0
VERTEX
8
LITE
10
24.483946
20
226.193451
30
116.971909
70
192
0
VERTEX
8
LITE
10
23.069609
20
227.206940
30
116.971909
70
192
0
VERTEX
8
LITE
10
21.880167
20
228.476883
30
116.971909
70
192
0
VERTEX
8
LITE
10
20.961332
20
229.954453
30
116.971909
70
192
0
VERTEX
8
LITE
10
18.009916
20
230.956375
30
118.958748
70
192
0
VERTEX
8
LITE
10
17.649172
20
233.141373
30
118.958748
70
192
0
VERTEX
8
LITE
10
17.721632
20
235.354752
30
118.958748
70
192
0
VERTEX
8
LITE
10
18.224508
20
237.511475
30
118.958748
70
192
0
VERTEX
8
LITE
10
19.138479
20
239.528656
30
118.958748
70
192
0
VERTEX
8
LITE
10
20.428419
20
241.328751
30
118.958748
70
192
0
VERTEX
8
LITE
10
22.044756
20
242.842621
30
118.958748
70
192
0
VERTEX
8
LITE
10
23.925375
20
244.012070
30
118.958748
70
192
0
VERTEX
8
LITE
10
25.998007
20
244.792145
30
118.958748
70
192
0
VERTEX
8
LITE
10
28.183001
20
245.152893
30
118.958748
70
192
0
VERTEX
8
LITE
10
30.396383
20
245.080429
30
118.958748
70
192
0
VERTEX
8
LITE
10
32.553101
20
244.577545
30
118.958748
70
192
0
VERTEX
8
LITE
10
34.570271
20
243.663574
30
118.958748
70
192
0
VERTEX
8
LITE
10
36.370373
20
242.373642
30
118.958748
70
192
0
VERTEX
8
LITE
10
37.884232
20
240.757309
30
118.958748
70
192
0
VERTEX
8
LITE
10
39.053677
20
238.876694
30
118.958748
70
192
0
VERTEX
8
LITE
10
39.833759
20
236.804077
30
118.958748
70
192
0
VERTEX
8
LITE
10
40.194504
20
234.619095
30
118.958748
70
192
0
VERTEX
8
LITE
10
40.122051
20
232.405701
30
118.958748
70
192
0
VERTEX
8
LITE
10
39.619183
20
230.248993
30
118.958748
70
192
0
VERTEX
8
LITE
10
38.705219
20
228.231827
30
118.958748
70
192
0
VERTEX
8
LITE
10
37.415291
20
226.431717
30
118.958748
70
192
0
VERTEX
8
LITE
10
35.798965
20
224.917847
30
118.958748
70
192
0
VERTEX
8
LITE
10
33.918354
20
223.748398
30
118.958748
70
192
0
VERTEX
8
LITE
10
31.845728
20
222.968307
30
118.958748
70
192
0
VERTEX
8
LITE
10
29.660744
20
222.607559
30
118.958748
70
192
0
VERTEX
8
LITE
10
27.447363
20
222.680008
30
118.958748
70
192
0
VERTEX
8
LITE
10
25.290644
20
223.182861
30
118.958748
70
192
0
VERTEX
8
LITE
10
23.273470
20
224.096817
30
118.958748
70
192
0
VERTEX
8
LITE
10
21.473360
20
225.386749
30
118.958748
70
192
0
VERTEX
8
LITE
10
19.959490
20
227.003067
30
118.958748
70
192
0
VERTEX
8
LITE
10
18.790033
20
228.883667
30
118.958748
70
192
0
VERTEX
8
LITE
10
16.090775
20
230.442154
30
121.379723
70
192
0
VERTEX
8
LITE
10
15.666587
20
233.011429
30
121.379723
70
192
0
VERTEX
8
LITE
10
15.751788
20
235.614090
30
121.379723
70
192
0
VERTEX
8
LITE
10
16.343113
20
238.150131
30
121.379723
70
192
0
VERTEX
8
LITE
10
17.417828
20
240.522079
30
121.379723
70
192
0
VERTEX
8
LITE
10
18.934635
20
242.638779
30
121.379723
70
192
0
VERTEX
8
LITE
10
20.835247
20
244.418884
30
121.379723
70
192
0
VERTEX
8
LITE
10
23.046623
20
245.794006
30
121.379723
70
192
0
VERTEX
8
LITE
10
25.483780
20
246.711288
30
121.379723
70
192
0
VERTEX
8
LITE
10
28.053059
20
247.135468
30
121.379723
70
192
0
VERTEX
8
LITE
10
30.655722
20
247.050262
30
121.379723
70
192
0
VERTEX
8
LITE
10
33.191753
20
246.458954
30
121.379723
70
192
0
VERTEX
8
LITE
10
35.563690
20
245.384232
30
121.379723
70
192
0
VERTEX
8
LITE
10
37.680389
20
243.867432
30
121.379723
70
192
0
VERTEX
8
LITE
10
39.460499
20
241.966827
30
121.379723
70
192
0
VERTEX
8
LITE
10
40.835617
20
239.755463
30
121.379723
70
192
0
VERTEX
8
LITE
10
41.752899
20
237.318314
30
121.379723
70
192
0
VERTEX
8
LITE
10
42.177094
20
234.749039
30
121.379723
70
192
0
VERTEX
8
LITE
10
42.091896
20
232.146378
30
121.379723
70
192
0
VERTEX
8
LITE
10
41.500584
20
229.610352
30
121.379723
70
192
0
VERTEX
8
LITE
10
40.425877
20
227.238403
30
121.379723
70
192
0
VERTEX
8
LITE
10
38.909081
20
225.121704
30
121.379723
70
192
0
VERTEX
8
LITE
10
37.008480
20
223.341583
30
121.379723
70
192
0
VERTEX
8
LITE
10
34.797119
20
221.966461
30
121.379723
70
192
0
VERTEX
8
LITE
10
32.359970
20
221.049164
30
121.379723
70
192
0
VERTEX
8
LITE
10
29.790701
20
220.624969
30
121.379723
70
192
0
VERTEX
8
LITE
10
27.188040
20
220.710159
30
121.379723
70
192
0
VERTEX
8
LITE
10
24.652008
20
221.301468
30
121.379723
70
192
0
VERTEX
8
LITE
10
22.280064
20
222.376160
30
121.379723
70
192
0
VERTEX
8
LITE
10
20.163357
20
223.892944
30
121.379723
70
192
0
VERTEX
8
LITE
10
18.383232
20
225.793549
30
121.379723
70
192
0
VERTEX
8
LITE
10
17.008099
20
228.004898
30
121.379723
70
192
0
VERTEX
8
LITE
10
14.664725
20
230.060043
30
124.141785
70
192
0
VERTEX
8
LITE
10
14.193393
20
232.914871
30
124.141777
70
192
0
VERTEX
8
LITE
10
14.288066
20
235.806793
30
124.141785
70
192
0
VERTEX
8
LITE
10
14.945106
20
238.624695
30
124.141785
70
192
0
VERTEX
8
LITE
10
16.139267
20
241.260254
30
124.141785
70
192
0
VERTEX
8
LITE
10
17.824654
20
243.612198
30
124.141785
70
192
0
VERTEX
8
LITE
10
19.936501
20
245.590164
30
124.141785
70
192
0
VERTEX
8
LITE
10
22.393646
20
247.118103
30
124.141785
70
192
0
VERTEX
8
LITE
10
25.101669
20
248.137329
30
124.141785
70
192
0
VERTEX
8
LITE
10
27.956501
20
248.608673
30
124.141785
70
192
0
VERTEX
8
LITE
10
30.848427
20
248.513992
30
124.141785
70
192
0
VERTEX
8
LITE
10
33.666313
20
247.856949
30
124.141785
70
192
0
VERTEX
8
LITE
10
36.301868
20
246.662796
30
124.141785
70
192
0
VERTEX
8
LITE
10
38.653816
20
244.977417
30
124.141785
70
192
0
VERTEX
8
LITE
10
40.631771
20
242.865570
30
124.141785
70
192
0
VERTEX
8
LITE
10
42.159721
20
240.408432
30
124.141785
70
192
0
VERTEX
8
LITE
10
43.178944
20
237.700424
30
124.141785
70
192
0
VERTEX
8
LITE
10
43.650284
20
234.845596
30
124.141785
70
192
0
VERTEX
8
LITE
10
43.555614
20
231.953674
30
124.141785
70
192
0
VERTEX
8
LITE
10
42.898586
20
229.135788
30
124.141785
70
192
0
VERTEX
8
LITE
10
41.704437
20
226.500229
30
124.141785
70
192
0
VERTEX
8
LITE
10
40.019062
20
224.148285
30
124.141785
70
192
0
VERTEX
8
LITE
10
37.907234
20
222.170319
30
124.141785
70
192
0
VERTEX
8
LITE
10
35.450100
20
220.642365
30
124.141785
70
192
0
VERTEX
8
LITE
10
32.742088
20
219.623123
30
124.141785
70
192
0
VERTEX
8
LITE
10
29.887266
20
219.151779
30
124.141785
70
192
0
VERTEX
8
LITE
10
26.995346
20
219.246429
30
124.141785
70
192
0
VERTEX
8
LITE
10
24.177456
20
219.903458
30
124.141785
70
192
0
VERTEX
8
LITE
10
21.541893
20
221.097595
30
124.141785
70
192
0
VERTEX
8
LITE
10
19.189938
20
222.782959
30
124.141785
70
192
0
VERTEX
8
LITE
10
17.211967
20
224.894791
30
124.141785
70
192
0
VERTEX
8
LITE
10
15.683996
20
227.351913
30
124.141785
70
192
0
VERTEX
8
LITE
10
13.786563
20
229.824738
30
127.138794
70
192
0
VERTEX
8
LITE
10
13.286197
20
232.855408
30
127.138794
70
192
0
VERTEX
8
LITE
10
13.386703
20
235.925461
30
127.138824
70
192
0
VERTEX
8
LITE
10
14.084212
20
238.916916
30
127.138824
70
192
0
VERTEX
8
LITE
10
15.351927
20
241.714813
30
127.138802
70
192
0
VERTEX
8
LITE
10
17.141129
20
244.211639
30
127.138802
70
192
0
VERTEX
8
LITE
10
19.383053
20
246.311432
30
127.138832
70
192
0
VERTEX
8
LITE
10
21.991547
20
247.933487
30
127.138802
70
192
0
VERTEX
8
LITE
10
24.866371
20
249.015488
30
127.138802
70
192
0
VERTEX
8
LITE
10
27.897039
20
249.515854
30
127.138832
70
192
0
VERTEX
8
LITE
10
30.967093
20
249.415344
30
127.138802
70
192
0
VERTEX
8
LITE
10
33.958542
20
248.717834
30
127.138802
70
192
0
VERTEX
8
LITE
10
36.756435
20
247.450134
30
127.138832
70
192
0
VERTEX
8
LITE
10
39.253250
20
245.660934
30
127.138802
70
192
0
VERTEX
8
LITE
10
41.353031
20
243.419022
30
127.138802
70
192
0
VERTEX
8
LITE
10
42.975094
20
240.810532
30
127.138802
70
192
0
VERTEX
8
LITE
10
44.057106
20
237.935730
30
127.138832
70
192
0
VERTEX
8
LITE
10
44.557476
20
234.905060
30
127.138802
70
192
0
VERTEX
8
LITE
10
44.456978
20
231.835007
30
127.138802
70
192
0
VERTEX
8
LITE
10
43.759476
20
228.843567
30
127.138832
70
192
0
VERTEX
8
LITE
10
42.491776
20
226.045670
30
127.138802
70
192
0
VERTEX
8
LITE
10
40.702591
20
223.548843
30
127.138832
70
192
0
VERTEX
8
LITE
10
38.460682
20
221.449051
30
127.138794
70
192
0
VERTEX
8
LITE
10
35.852203
20
219.826981
30
127.138794
70
192
0
VERTEX
8
LITE
10
32.977394
20
218.744965
30
127.138832
70
192
0
VERTEX
8
LITE
10
29.946728
20
218.244583
30
127.138794
70
192
0
VERTEX
8
LITE
10
26.876682
20
218.345078
30
127.138794
70
192
0
VERTEX
8
LITE
10
23.885231
20
219.042572
30
127.138832
70
192
0
VERTEX
8
LITE
10
21.087330
20
220.310257
30
127.138794
70
192
0
VERTEX
8
LITE
10
18.590504
20
222.099426
30
127.138832
70
192
0
VERTEX
8
LITE
10
16.490704
20
224.341339
30
127.138794
70
192
0
VERTEX
8
LITE
10
14.868625
20
226.949814
30
127.138802
70
192
0
VERTEX
8
LITE
10
13.490050
20
229.745285
30
130.255585
70
192
0
VERTEX
8
LITE
10
12.979880
20
232.835327
30
130.255585
70
192
0
VERTEX
8
LITE
10
13.082355
20
235.965530
30
130.255585
70
192
0
VERTEX
8
LITE
10
13.793532
20
239.015594
30
130.255585
70
192
0
VERTEX
8
LITE
10
15.086082
20
241.868301
30
130.255600
70
192
0
VERTEX
8
LITE
10
16.910332
20
244.414047
30
130.255600
70
192
0
VERTEX
8
LITE
10
19.196178
20
246.554962
30
130.255600
70
192
0
VERTEX
8
LITE
10
21.855774
20
248.208817
30
130.255600
70
192
0
VERTEX
8
LITE
10
24.786919
20
249.312012
30
130.255600
70
192
0
VERTEX
8
LITE
10
27.876963
20
249.822174
30
130.255600
70
192
0
VERTEX
8
LITE
10
31.007162
20
249.719696
30
130.255600
70
192
0
VERTEX
8
LITE
10
34.057220
20
249.008530
30
130.255600
70
192
0
VERTEX
8
LITE
10
36.909924
20
247.715973
30
130.255600
70
192
0
VERTEX
8
LITE
10
39.455650
20
245.891739
30
130.255600
70
192
0
VERTEX
8
LITE
10
41.596577
20
243.605896
30
130.255600
70
192
0
VERTEX
8
LITE
10
43.250420
20
240.946304
30
130.255600
70
192
0
VERTEX
8
LITE
10
44.353622
20
238.015167
30
130.255600
70
192
0
VERTEX
8
LITE
10
44.863808
20
234.925140
30
130.255600
70
192
0
VERTEX
8
LITE
10
44.761345
20
231.794952
30
130.255600
70
192
0
VERTEX
8
LITE
10
44.050179
20
228.744888
30
130.255600
70
192
0
VERTEX
8
LITE
10
42.757626
20
225.892181
30
130.255600
70
192
0
VERTEX
8
LITE
10
40.933388
20
223.346436
30
130.255600
70
192
0
VERTEX
8
LITE
10
38.647560
20
221.205505
30
130.255600
70
192
0
VERTEX
8
LITE
10
35.987976
20
219.551666
30
130.255600
70
192
0
VERTEX
8
LITE
10
33.056847
20
218.448456
30
130.255600
70
192
0
VERTEX
8
LITE
10
29.966805
20
217.938263
30
130.255600
70
192
0
VERTEX
8
LITE
10
26.836613
20
218.040726
30
130.255600
70
192
0
VERTEX
8
LITE
10
23.786554
20
218.751877
30
130.255600
70
192
0
VERTEX
8
LITE
10
20.933840
20
220.044403
30
130.255600
70
192
0
VERTEX
8
LITE
10
18.388103
20
221.868637
30
130.255600
70
192
0
VERTEX
8
LITE
10
16.247166
20
224.154465
30
130.255600
70
192
0
VERTEX
8
LITE
10
14.593307
20
226.814041
30
130.255600
70
192
0
VERTEX
8
LITE
10
0
20
0
30
0
70
128
71
1
72
2
73
3
0
VERTEX
8
LITE
10
0
20
0
30
0
70
128
71
1
72
3
73
4
0
VERTEX
8
LITE
10
0
20
0
30
0
70
128
71
1
72
4
73
5
0
VERTEX
8
LITE
10
0
20
0
30
0
70
128
71
1
72
5
73
6
0
VERTEX
8
LITE
10
0
20
0
30
0
70
128
71
1
72
6
73
7
0
VERTEX
8
LITE
10
0
20
0
30
0
70
128
71
1
72
7
73
8
0
VERTEX
8
LITE
10
0
20
0
30
0
70
128
71
1
72
8
73
9
0
VERTEX
8
LITE
10
0
20
0
30
0
70
128
71
1
72
9
73
10
0
VERTEX
8
LITE
10
0
20
0
30
0
70
128
71
1
72
10
73
11
0
VERTEX
8
LITE
10
0
20
0
30
0
70
128
71
1
72
11
73
12
0
VERTEX
8
LITE
10
0
20
0
30
0
70
128
71
1
72
12
73
13
0
VERTEX
8
LITE
10
0
20
0
30
0
70
128
71
1
72
13
73
14
0
VERTEX
8
LITE
10
0
20
0
30
0
70
128
71
1
72
14
73
15
0
VERTEX
8
LITE
10
0
20
0
30
0
70
128
71
1
72
15
73
16
0
VERTEX
8
LITE
10
0
20
0
30
0
70
128
71
1
72
16
73
17
0
VERTEX
8
LITE
10
0
20
0
30
0
70
128
71
1
72
17
73
18
0
VERTEX
8
LITE
10
0
20
0
30
0
70
128
71
1
72
18
73
19
0
VERTEX
8
LITE
10
0
20
0
30
0
70
128
71
1
72
19
73
20
0
VERTEX
8
LITE
10
0
20
0
30
0
70
128
71
1
72
20
73
21
0
VERTEX
8
LITE
10
0
20
0
30
0
70
128
71
1
72
21
73
22
0
VERTEX
8
LITE
10
0
20
0
30
0
70
128
71
1
72
22
73
23
0
VERTEX
8
LITE
10
0
20
0
30
0
70
128
71
1
72
23
73
24
0
VERTEX
8
LITE
10
0
20
0
30
0
70
128
71
1
72
24
73
25
0
VERTEX
8
LITE
10
0
20
0
30
0
70
128
71
1
72
25
73
26
0
VERTEX
8
LITE
10
0
20
0
30
0
70
128
71
1
72
26
73
27
0
VERTEX
8
LITE
10
0
20
0
30
0
70
128
71
1
72
27
73
28
0
VERTEX
8
LITE
10
0
20
0
30
0
70
128
71
1
72
28
73
29
0
VERTEX
8
LITE
10
0
20
0
30
0
70
128
71
1
72
29
73
30
0
VERTEX
8
LITE
10
0
20
0
30
0
70
128
71
1
72
30
73
31
0
VERTEX
8
LITE
10
0
20
0
30
0
70
128
71
1
72
31
73
32
0
VERTEX
8
LITE
10
0
20
0
30
0
70
128
71
1
72
32
73
33
0
VERTEX
8
LITE
10
0
20
0
30
0
70
128
71
1
72
33
73
2
0
VERTEX
8
LITE
10
0
20
0
30
0
70
128
71
2
72
34
73
-35
0
VERTEX
8
LITE
10
0
20
0
30
0
70
128
71
-2
72
35
73
3
0
VERTEX
8
LITE
10
0
20
0
30
0
70
128
71
3
72
35
73
-36
0
VERTEX
8
LITE
10
0
20
0
30
0
70
128
71
-3
72
36
73
4
0
VERTEX
8
LITE
10
0
20
0
30
0
70
128
71
4
72
36
73
-37
0
VERTEX
8
LITE
10
0
20
0
30
0
70
128
71
-4
72
37
73
5
0
VERTEX
8
LITE
10
0
20
0
30
0
70
128
71
5
72
37
73
-38
0
VERTEX
8
LITE
10
0
20
0
30
0
70
128
71
-5
72
38
73
6
0
VERTEX
8
LITE
10
0
20
0
30
0
70
128
71
6
72
38
73
-39
0
VERTEX
8
LITE
10
0
20
0
30
0
70
128
71
-6
72
39
73
7
0
VERTEX
8
LITE
10
0
20
0
30
0
70
128
71
7
72
39
73
-40
0
VERTEX
8
LITE
10
0
20
0
30
0
70
128
71
-7
72
40
73
8
0
VERTEX
8
LITE
10
0
20
0
30
0
70
128
71
8
72
40
73
-41
0
VERTEX
8
LITE
10
0
20
0
30
0
70
128
71
-8
72
41
73
9
0
VERTEX
8
LITE
10
0
20
0
30
0
70
128
71
9
72
41
73
-42
0
VERTEX
8
LITE
10
0
20
0
30
0
70
128
71
-9
72
42
73
10
0
VERTEX
8
LITE
10
0
20
0
30
0
70
128
71
10
72
42
73
-43
0
VERTEX
8
LITE
10
0
20
0
30
0
70
128
71
-10
72
43
73
11
0
VERTEX
8
LITE
10
0
20
0
30
0
70
128
71
11
72
43
73
-44
0
VERTEX
8
LITE
10
0
20
0
30
0
70
128
71
-11
72
44
73
12
0
VERTEX
8
LITE
10
0
20
0
30
0
70
128
71
12
72
44
73
-45
0
VERTEX
8
LITE
10
0
20
0
30
0
70
128
71
-12
72
45
73
13
0
VERTEX
8
LITE
10
0
20
0
30
0
70
128
71
13
72
45
73
-46
0
VERTEX
8
LITE
10
0
20
0
30
0
70
128
71
-13
72
46
73
14
0
VERTEX
8
LITE
10
0
20
0
30
0
70
128
71
14
72
46
73
-47
0
VERTEX
8
LITE
10
0
20
0
30
0
70
128
71
-14
72
47
73
15
0
VERTEX
8
LITE
10
0
20
0
30
0
70
128
71
15
72
47
73
-48
0
VERTEX
8
LITE
10
0
20
0
30
0
70
128
71
-15
72
48
73
16
0
VERTEX
8
LITE
10
0
20
0
30
0
70
128
71
16
72
48
73
-49
0
VERTEX
8
LITE
10
0
20
0
30
0
70
128
71
-16
72
49
73
17
0
VERTEX
8
LITE
10
0
20
0
30
0
70
128
71
17
72
49
73
-50
0
VERTEX
8
LITE
10
0
20
0
30
0
70
128
71
-17
72
50
73
18
0
VERTEX
8
LITE
10
0
20
0
30
0
70
128
71
18
72
50
73
-51
0
VERTEX
8
LITE
10
0
20
0
30
0
70
128
71
-18
72
51
73
19
0
VERTEX
8
LITE
10
0
20
0
30
0
70
128
71
19
72
51
73
-52
0
VERTEX
8
LITE
10
0
20
0
30
0
70
128
71
-19
72
52
73
20
0
VERTEX
8
LITE
10
0
20
0
30
0
70
128
71
20
72
52
73
-53
0
VERTEX
8
LITE
10
0
20
0
30
0
70
128
71
-20
72
53
73
21
0
VERTEX
8
LITE
10
0
20
0
30
0
70
128
71
21
72
53
73
-54
0
VERTEX
8
LITE
10
0
20
0
30
0
70
128
71
-21
72
54
73
22
0
VERTEX
8
LITE
10
0
20
0
30
0
70
128
71
22
72
54
73
-55
0
VERTEX
8
LITE
10
0
20
0
30
0
70
128
71
-22
72
55
73
23
0
VERTEX
8
LITE
10
0
20
0
30
0
70
128
71
23
72
55
73
-56
0
VERTEX
8
LITE
10
0
20
0
30
0
70
128
71
-23
72
56
73
24
0
VERTEX
8
LITE
10
0
20
0
30
0
70
128
71
24
72
56
73
-57
0
VERTEX
8
LITE
10
0
20
0
30
0
70
128
71
-24
72
57
73
25
0
VERTEX
8
LITE
10
0
20
0
30
0
70
128
71
25
72
57
73
-58
0
VERTEX
8
LITE
10
0
20
0
30
0
70
128
71
-25
72
58
73
26
0
VERTEX
8
LITE
10
0
20
0
30
0
70
128
71
26
72
58
73
-59
0
VERTEX
8
LITE
10
0
20
0
30
0
70
128
71
-26
72
59
73
27
0
VERTEX
8
LITE
10
0
20
0
30
0
70
128
71
27
72
59
73
-60
0
VERTEX
8
LITE
10
0
20
0
30
0
70
128
71
-27
72
60
73
28
0
VERTEX
8
LITE
10
0
20
0
30
0
70
128
71
28
72
60
73
-61
0
VERTEX
8
LITE
10
0
20
0
30
0
70
128
71
-28
72
61
73
29
0
VERTEX
8
LITE
10
0
20
0
30
0
70
128
71
29
72
61
73
-62
0
VERTEX
8
LITE
10
0
20
0
30
0
70
128
71
-29
72
62
73
30
0
VERTEX
8
LITE
10
0
20
0
30
0
70
128
71
30
72
62
73
-63
0
VERTEX
8
LITE
10
0
20
0
30
0
70
128
71
-30
72
63
73
31
0
VERTEX
8
LITE
10
0
20
0
30
0
70
128
71
31
72
63
73
-64
0
VERTEX
8
LITE
10
0
20
0
30
0
70
128
71
-31
72
64
73
32
0
VERTEX
8
LITE
10
0
20
0
30
0
70
128
71
32
72
64
73
-65
0
VERTEX
8
LITE
10
0
20
0
30
0
70
128
71
-32
72
65
73
33
0
VERTEX
8
LITE
10
0
20
0
30
0
70
128
71
33
72
65
73
-34
0
VERTEX
8
LITE
10
0
20
0
30
0
70
128
71
-33
72
34
73
2
0
VERTEX
8
LITE
10
0
20
0
30
0
70
128
71
34
72
66
73
-67
0
VERTEX
8
LITE
10
0
20
0
30
0
70
128
71
-34
72
67
73
35
0
VERTEX
8
LITE
10
0
20
0
30
0
70
128
71
35
72
67
73
-68
0
VERTEX
8
LITE
10
0
20
0
30
0
70
128
71
-35
72
68
73
36
0
VERTEX
8
LITE
10
0
20
0
30
0
70
128
71
36
72
68
73
-69
0
VERTEX
8
LITE
10
0
20
0
30
0
70
128
71
-36
72
69
73
37
0
VERTEX
8
LITE
10
0
20
0
30
0
70
128
71
37
72
69
73
-70
0
VERTEX
8
LITE
10
0
20
0
30
0
70
128
71
-37
72
70
73
38
0
VERTEX
8
LITE
10
0
20
0
30
0
70
128
71
38
72
70
73
-71
0
VERTEX
8
LITE
10
0
20
0
30
0
70
128
71
-38
72
71
73
39
0
VERTEX
8
LITE
10
0
20
0
30
0
70
128
71
39
72
71
73
-72
0
VERTEX
8
LITE
10
0
20
0
30
0
70
128
71
-39
72
72
73
40
0
VERTEX
8
LITE
10
0
20
0
30
0
70
128
71
40
72
72
73
-73
0
VERTEX
8
LITE
10
0
20
0
30
0
70
128
71
-40
72
73
73
41
0
VERTEX
8
LITE
10
0
20
0
30
0
70
128
71
41
72
73
73
-74
0
VERTEX
8
LITE
10
0
20
0
30
0
70
128
71
-41
72
74
73
42
0
VERTEX
8
LITE
10
0
20
0
30
0
70
128
71
42
72
74
73
-75
0
VERTEX
8
LITE
10
0
20
0
30
0
70
128
71
-42
72
75
73
43
0
VERTEX
8
LITE
10
0
20
0
30
0
70
128
71
43
72
75
73
-76
0
VERTEX
8
LITE
10
0
20
0
30
0
70
128
71
-43
72
76
73
44
0
VERTEX
8
LITE
10
0
20
0
30
0
70
128
71
44
72
76
73
-77
0
VERTEX
8
LITE
10
0
20
0
30
0
70
128
71
-44
72
77
73
45
0
VERTEX
8
LITE
10
0
20
0
30
0
70
128
71
45
72
77
73
-78
0
VERTEX
8
LITE
10
0
20
0
30
0
70
128
71
-45
72
78
73
46
0
VERTEX
8
LITE
10
0
20
0
30
0
70
128
71
46
72
78
73
-79
0
VERTEX
8
LITE
10
0
20
0
30
0
70
128
71
-46
72
79
73
47
0
VERTEX
8
LITE
10
0
20
0
30
0
70
128
71
47
72
79
73
-80
0
VERTEX
8
LITE
10
0
20
0
30
0
70
128
71
-47
72
80
73
48
0
VERTEX
8
LITE
10
0
20
0
30
0
70
128
71
48
72
80
73
-81
0
VERTEX
8
LITE
10
0
20
0
30
0
70
128
71
-48
72
81
73
49
0
VERTEX
8
LITE
10
0
20
0
30
0
70
128
71
49
72
81
73
-82
0
VERTEX
8
LITE
10
0
20
0
30
0
70
128
71
-49
72
82
73
50
0
VERTEX
8
LITE
10
0
20
0
30
0
70
128
71
50
72
82
73
-83
0
VERTEX
8
LITE
10
0
20
0
30
0
70
128
71
-50
72
83
73
51
0
VERTEX
8
LITE
10
0
20
0
30
0
70
128
71
51
72
83
73
-84
0
VERTEX
8
LITE
10
0
20
0
30
0
70
128
71
-51
72
84
73
52
0
VERTEX
8
LITE
10
0
20
0
30
0
70
128
71
52
72
84
73
-85
0
VERTEX
8
LITE
10
0
20
0
30
0
70
128
71
-52
72
85
73
53
0
VERTEX
8
LITE
10
0
20
0
30
0
70
128
71
53
72
85
73
-86
0
VERTEX
8
LITE
10
0
20
0
30
0
70
128
71
-53
72
86
73
54
0
VERTEX
8
LITE
10
0
20
0
30
0
70
128
71
54
72
86
73
-87
0
VERTEX
8
LITE
10
0
20
0
30
0
70
128
71
-54
72
87
73
55
0
VERTEX
8
LITE
10
0
20
0
30
0
70
128
71
55
72
87
73
-88
0
VERTEX
8
LITE
10
0
20
0
30
0
70
128
71
-55
72
88
73
56
0
VERTEX
8
LITE
10
0
20
0
30
0
70
128
71
56
72
88
73
-89
0
VERTEX
8
LITE
10
0
20
0
30
0
70
128
71
-56
72
89
73
57
0
VERTEX
8
LITE
10
0
20
0
30
0
70
128
71
57
72
89
73
-90
0
VERTEX
8
LITE
10
0
20
0
30
0
70
128
71
-57
72
90
73
58
0
VERTEX
8
LITE
10
0
20
0
30
0
70
128
71
58
72
90
73
-91
0
VERTEX
8
LITE
10
0
20
0
30
0
70
128
71
-58
72
91
73
59
0
VERTEX
8
LITE
10
0
20
0
30
0
70
128
71
59
72
91
73
-92
0
VERTEX
8
LITE
10
0
20
0
30
0
70
128
71
-59
72
92
73
60
0
VERTEX
8
LITE
10
0
20
0
30
0
70
128
71
60
72
92
73
-93
0
VERTEX
8
LITE
10
0
20
0
30
0
70
128
71
-60
72
93
73
61
0
VERTEX
8
LITE
10
0
20
0
30
0
70
128
71
61
72
93
73
-94
0
VERTEX
8
LITE
10
0
20
0
30
0
70
128
71
-61
72
94
73
62
0
VERTEX
8
LITE
10
0
20
0
30
0
70
128
71
62
72
94
73
-95
0
VERTEX
8
LITE
10
0
20
0
30
0
70
128
71
-62
72
95
73
63
0
VERTEX
8
LITE
10
0
20
0
30
0
70
128
71
63
72
95
73
-96
0
VERTEX
8
LITE
10
0
20
0
30
0
70
128
71
-63
72
96
73
64
0
VERTEX
8
LITE
10
0
20
0
30
0
70
128
71
64
72
96
73
-97
0
VERTEX
8
LITE
10
0
20
0
30
0
70
128
71
-64
72
97
73
65
0
VERTEX
8
LITE
10
0
20
0
30
0
70
128
71
65
72
97
73
-66
0
VERTEX
8
LITE
10
0
20
0
30
0
70
128
71
-65
72
66
73
34
0
VERTEX
8
LITE
10
0
20
0
30
0
70
128
71
66
72
98
73
-99
0
VERTEX
8
LITE
10
0
20
0
30
0
70
128
71
-66
72
99
73
67
0
VERTEX
8
LITE
10
0
20
0
30
0
70
128
71
67
72
99
73
-100
0
VERTEX
8
LITE
10
0
20
0
30
0
70
128
71
-67
72
100
73
68
0
VERTEX
8
LITE
10
0
20
0
30
0
70
128
71
68
72
100
73
-101
0
VERTEX
8
LITE
10
0
20
0
30
0
70
128
71
-68
72
101
73
69
0
VERTEX
8
LITE
10
0
20
0
30
0
70
128
71
69
72
101
73
-102
0
VERTEX
8
LITE
10
0
20
0
30
0
70
128
71
-69
72
102
73
70
0
VERTEX
8
LITE
10
0
20
0
30
0
70
128
71
70
72
102
73
-103
0
VERTEX
8
LITE
10
0
20
0
30
0
70
128
71
-70
72
103
73
71
0
VERTEX
8
LITE
10
0
20
0
30
0
70
128
71
71
72
103
73
-104
0
VERTEX
8
LITE
10
0
20
0
30
0
70
128
71
-71
72
104
73
72
0
VERTEX
8
LITE
10
0
20
0
30
0
70
128
71
72
72
104
73
-105
0
VERTEX
8
LITE
10
0
20
0
30
0
70
128
71
-72
72
105
73
73
0
VERTEX
8
LITE
10
0
20
0
30
0
70
128
71
73
72
105
73
-106
0
VERTEX
8
LITE
10
0
20
0
30
0
70
128
71
-73
72
106
73
74
0
VERTEX
8
LITE
10
0
20
0
30
0
70
128
71
74
72
106
73
-107
0
VERTEX
8
LITE
10
0
20
0
30
0
70
128
71
-74
72
107
73
75
0
VERTEX
8
LITE
10
0
20
0
30
0
70
128
71
75
72
107
73
-108
0
VERTEX
8
LITE
10
0
20
0
30
0
70
128
71
-75
72
108
73
76
0
VERTEX
8
LITE
10
0
20
0
30
0
70
128
71
76
72
108
73
-109
0
VERTEX
8
LITE
10
0
20
0
30
0
70
128
71
-76
72
109
73
77
0
VERTEX
8
LITE
10
0
20
0
30
0
70
128
71
77
72
109
73
-110
0
VERTEX
8
LITE
10
0
20
0
30
0
70
128
71
-77
72
110
73
78
0
VERTEX
8
LITE
10
0
20
0
30
0
70
128
71
78
72
110
73
-111
0
VERTEX
8
LITE
10
0
20
0
30
0
70
128
71
-78
72
111
73
79
0
VERTEX
8
LITE
10
0
20
0
30
0
70
128
71
79
72
111
73
-112
0
VERTEX
8
LITE
10
0
20
0
30
0
70
128
71
-79
72
112
73
80
0
VERTEX
8
LITE
10
0
20
0
30
0
70
128
71
80
72
112
73
-113
0
VERTEX
8
LITE
10
0
20
0
30
0
70
128
71
-80
72
113
73
81
0
VERTEX
8
LITE
10
0
20
0
30
0
70
128
71
81
72
113
73
-114
0
VERTEX
8
LITE
10
0
20
0
30
0
70
128
71
-81
72
114
73
82
0
VERTEX
8
LITE
10
0
20
0
30
0
70
128
71
82
72
114
73
-115
0
VERTEX
8
LITE
10
0
20
0
30
0
70
128
71
-82
72
115
73
83
0
VERTEX
8
LITE
10
0
20
0
30
0
70
128
71
83
72
115
73
-116
0
VERTEX
8
LITE
10
0
20
0
30
0
70
128
71
-83
72
116
73
84
0
VERTEX
8
LITE
10
0
20
0
30
0
70
128
71
84
72
116
73
-117
0
VERTEX
8
LITE
10
0
20
0
30
0
70
128
71
-84
72
117
73
85
0
VERTEX
8
LITE
10
0
20
0
30
0
70
128
71
85
72
117
73
-118
0
VERTEX
8
LITE
10
0
20
0
30
0
70
128
71
-85
72
118
73
86
0
VERTEX
8
LITE
10
0
20
0
30
0
70
128
71
86
72
118
73
-119
0
VERTEX
8
LITE
10
0
20
0
30
0
70
128
71
-86
72
119
73
87
0
VERTEX
8
LITE
10
0
20
0
30
0
70
128
71
87
72
119
73
-120
0
VERTEX
8
LITE
10
0
20
0
30
0
70
128
71
-87
72
120
73
88
0
VERTEX
8
LITE
10
0
20
0
30
0
70
128
71
88
72
120
73
-121
0
VERTEX
8
LITE
10
0
20
0
30
0
70
128
71
-88
72
121
73
89
0
VERTEX
8
LITE
10
0
20
0
30
0
70
128
71
89
72
121
73
-122
0
VERTEX
8
LITE
10
0
20
0
30
0
70
128
71
-89
72
122
73
90
0
VERTEX
8
LITE
10
0
20
0
30
0
70
128
71
90
72
122
73
-123
0
VERTEX
8
LITE
10
0
20
0
30
0
70
128
71
-90
72
123
73
91
0
VERTEX
8
LITE
10
0
20
0
30
0
70
128
71
91
72
123
73
-124
0
VERTEX
8
LITE
10
0
20
0
30
0
70
128
71
-91
72
124
73
92
0
VERTEX
8
LITE
10
0
20
0
30
0
70
128
71
92
72
124
73
-125
0
VERTEX
8
LITE
10
0
20
0
30
0
70
128
71
-92
72
125
73
93
0
VERTEX
8
LITE
10
0
20
0
30
0
70
128
71
93
72
125
73
-126
0
VERTEX
8
LITE
10
0
20
0
30
0
70
128
71
-93
72
126
73
94
0
VERTEX
8
LITE
10
0
20
0
30
0
70
128
71
94
72
126
73
-127
0
VERTEX
8
LITE
10
0
20
0
30
0
70
128
71
-94
72
127
73
95
0
VERTEX
8
LITE
10
0
20
0
30
0
70
128
71
95
72
127
73
-128
0
VERTEX
8
LITE
10
0
20
0
30
0
70
128
71
-95
72
128
73
96
0
VERTEX
8
LITE
10
0
20
0
30
0
70
128
71
96
72
128
73
-129
0
VERTEX
8
LITE
10
0
20
0
30
0
70
128
71
-96
72
129
73
97
0
VERTEX
8
LITE
10
0
20
0
30
0
70
128
71
97
72
129
73
-98
0
VERTEX
8
LITE
10
0
20
0
30
0
70
128
71
-97
72
98
73
66
0
VERTEX
8
LITE
10
0
20
0
30
0
70
128
71
98
72
130
73
-131
0
VERTEX
8
LITE
10
0
20
0
30
0
70
128
71
-98
72
131
73
99
0
VERTEX
8
LITE
10
0
20
0
30
0
70
128
71
99
72
131
73
-132
0
VERTEX
8
LITE
10
0
20
0
30
0
70
128
71
-99
72
132
73
100
0
VERTEX
8
LITE
10
0
20
0
30
0
70
128
71
100
72
132
73
-133
0
VERTEX
8
LITE
10
0
20
0
30
0
70
128
71
-100
72
133
73
101
0
VERTEX
8
LITE
10
0
20
0
30
0
70
128
71
101
72
133
73
-134
0
VERTEX
8
LITE
10
0
20
0
30
0
70
128
71
-101
72
134
73
102
0
VERTEX
8
LITE
10
0
20
0
30
0
70
128
71
102
72
134
73
-135
0
VERTEX
8
LITE
10
0
20
0
30
0
70
128
71
-102
72
135
73
103
0
VERTEX
8
LITE
10
0
20
0
30
0
70
128
71
103
72
135
73
-136
0
VERTEX
8
LITE
10
0
20
0
30
0
70
128
71
-103
72
136
73
104
0
VERTEX
8
LITE
10
0
20
0
30
0
70
128
71
104
72
136
73
-137
0
VERTEX
8
LITE
10
0
20
0
30
0
70
128
71
-104
72
137
73
105
0
VERTEX
8
LITE
10
0
20
0
30
0
70
128
71
105
72
137
73
-138
0
VERTEX
8
LITE
10
0
20
0
30
0
70
128
71
-105
72
138
73
106
0
VERTEX
8
LITE
10
0
20
0
30
0
70
128
71
106
72
138
73
-139
0
VERTEX
8
LITE
10
0
20
0
30
0
70
128
71
-106
72
139
73
107
0
VERTEX
8
LITE
10
0
20
0
30
0
70
128
71
107
72
139
73
-140
0
VERTEX
8
LITE
10
0
20
0
30
0
70
128
71
-107
72
140
73
108
0
VERTEX
8
LITE
10
0
20
0
30
0
70
128
71
108
72
140
73
-141
0
VERTEX
8
LITE
10
0
20
0
30
0
70
128
71
-108
72
141
73
109
0
VERTEX
8
LITE
10
0
20
0
30
0
70
128
71
109
72
141
73
-142
0
VERTEX
8
LITE
10
0
20
0
30
0
70
128
71
-109
72
142
73
110
0
VERTEX
8
LITE
10
0
20
0
30
0
70
128
71
110
72
142
73
-143
0
VERTEX
8
LITE
10
0
20
0
30
0
70
128
71
-110
72
143
73
111
0
VERTEX
8
LITE
10
0
20
0
30
0
70
128
71
111
72
143
73
-144
0
VERTEX
8
LITE
10
0
20
0
30
0
70
128
71
-111
72
144
73
112
0
VERTEX
8
LITE
10
0
20
0
30
0
70
128
71
112
72
144
73
-145
0
VERTEX
8
LITE
10
0
20
0
30
0
70
128
71
-112
72
145
73
113
0
VERTEX
8
LITE
10
0
20
0
30
0
70
128
71
113
72
145
73
-146
0
VERTEX
8
LITE
10
0
20
0
30
0
70
128
71
-113
72
146
73
114
0
VERTEX
8
LITE
10
0
20
0
30
0
70
128
71
114
72
146
73
-147
0
VERTEX
8
LITE
10
0
20
0
30
0
70
128
71
-114
72
147
73
115
0
VERTEX
8
LITE
10
0
20
0
30
0
70
128
71
115
72
147
73
-148
0
VERTEX
8
LITE
10
0
20
0
30
0
70
128
71
-115
72
148
73
116
0
VERTEX
8
LITE
10
0
20
0
30
0
70
128
71
116
72
148
73
-149
0
VERTEX
8
LITE
10
0
20
0
30
0
70
128
71
-116
72
149
73
117
0
VERTEX
8
LITE
10
0
20
0
30
0
70
128
71
117
72
149
73
-150
0
VERTEX
8
LITE
10
0
20
0
30
0
70
128
71
-117
72
150
73
118
0
VERTEX
8
LITE
10
0
20
0
30
0
70
128
71
118
72
150
73
-151
0
VERTEX
8
LITE
10
0
20
0
30
0
70
128
71
-118
72
151
73
119
0
VERTEX
8
LITE
10
0
20
0
30
0
70
128
71
119
72
151
73
-152
0
VERTEX
8
LITE
10
0
20
0
30
0
70
128
71
-119
72
152
73
120
0
VERTEX
8
LITE
10
0
20
0
30
0
70
128
71
120
72
152
73
-153
0
VERTEX
8
LITE
10
0
20
0
30
0
70
128
71
-120
72
153
73
121
0
VERTEX
8
LITE
10
0
20
0
30
0
70
128
71
121
72
153
73
-154
0
VERTEX
8
LITE
10
0
20
0
30
0
70
128
71
-121
72
154
73
122
0
VERTEX
8
LITE
10
0
20
0
30
0
70
128
71
122
72
154
73
-155
0
VERTEX
8
LITE
10
0
20
0
30
0
70
128
71
-122
72
155
73
123
0
VERTEX
8
LITE
10
0
20
0
30
0
70
128
71
123
72
155
73
-156
0
VERTEX
8
LITE
10
0
20
0
30
0
70
128
71
-123
72
156
73
124
0
VERTEX
8
LITE
10
0
20
0
30
0
70
128
71
124
72
156
73
-157
0
VERTEX
8
LITE
10
0
20
0
30
0
70
128
71
-124
72
157
73
125
0
VERTEX
8
LITE
10
0
20
0
30
0
70
128
71
125
72
157
73
-158
0
VERTEX
8
LITE
10
0
20
0
30
0
70
128
71
-125
72
158
73
126
0
VERTEX
8
LITE
10
0
20
0
30
0
70
128
71
126
72
158
73
-159
0
VERTEX
8
LITE
10
0
20
0
30
0
70
128
71
-126
72
159
73
127
0
VERTEX
8
LITE
10
0
20
0
30
0
70
128
71
127
72
159
73
-160
0
VERTEX
8
LITE
10
0
20
0
30
0
70
128
71
-127
72
160
73
128
0
VERTEX
8
LITE
10
0
20
0
30
0
70
128
71
128
72
160
73
-161
0
VERTEX
8
LITE
10
0
20
0
30
0
70
128
71
-128
72
161
73
129
0
VERTEX
8
LITE
10
0
20
0
30
0
70
128
71
129
72
161
73
-130
0
VERTEX
8
LITE
10
0
20
0
30
0
70
128
71
-129
72
130
73
98
0
VERTEX
8
LITE
10
0
20
0
30
0
70
128
71
130
72
162
73
-163
0
VERTEX
8
LITE
10
0
20
0
30
0
70
128
71
-130
72
163
73
131
0
VERTEX
8
LITE
10
0
20
0
30
0
70
128
71
131
72
163
73
-164
0
VERTEX
8
LITE
10
0
20
0
30
0
70
128
71
-131
72
164
73
132
0
VERTEX
8
LITE
10
0
20
0
30
0
70
128
71
132
72
164
73
-165
0
VERTEX
8
LITE
10
0
20
0
30
0
70
128
71
-132
72
165
73
133
0
VERTEX
8
LITE
10
0
20
0
30
0
70
128
71
133
72
165
73
-166
0
VERTEX
8
LITE
10
0
20
0
30
0
70
128
71
-133
72
166
73
134
0
VERTEX
8
LITE
10
0
20
0
30
0
70
128
71
134
72
166
73
-167
0
VERTEX
8
LITE
10
0
20
0
30
0
70
128
71
-134
72
167
73
135
0
VERTEX
8
LITE
10
0
20
0
30
0
70
128
71
135
72
167
73
-168
0
VERTEX
8
LITE
10
0
20
0
30
0
70
128
71
-135
72
168
73
136
0
VERTEX
8
LITE
10
0
20
0
30
0
70
128
71
136
72
168
73
-169
0
VERTEX
8
LITE
10
0
20
0
30
0
70
128
71
-136
72
169
73
137
0
VERTEX
8
LITE
10
0
20
0
30
0
70
128
71
137
72
169
73
-170
0
VERTEX
8
LITE
10
0
20
0
30
0
70
128
71
-137
72
170
73
138
0
VERTEX
8
LITE
10
0
20
0
30
0
70
128
71
138
72
170
73
-171
0
VERTEX
8
LITE
10
0
20
0
30
0
70
128
71
-138
72
171
73
139
0
VERTEX
8
LITE
10
0
20
0
30
0
70
128
71
139
72
171
73
-172
0
VERTEX
8
LITE
10
0
20
0
30
0
70
128
71
-139
72
172
73
140
0
VERTEX
8
LITE
10
0
20
0
30
0
70
128
71
140
72
172
73
-173
0
VERTEX
8
LITE
10
0
20
0
30
0
70
128
71
-140
72
173
73
141
0
VERTEX
8
LITE
10
0
20
0
30
0
70
128
71
141
72
173
73
-174
0
VERTEX
8
LITE
10
0
20
0
30
0
70
128
71
-141
72
174
73
142
0
VERTEX
8
LITE
10
0
20
0
30
0
70
128
71
142
72
174
73
-175
0
VERTEX
8
LITE
10
0
20
0
30
0
70
128
71
-142
72
175
73
143
0
VERTEX
8
LITE
10
0
20
0
30
0
70
128
71
143
72
175
73
-176
0
VERTEX
8
LITE
10
0
20
0
30
0
70
128
71
-143
72
176
73
144
0
VERTEX
8
LITE
10
0
20
0
30
0
70
128
71
144
72
176
73
-177
0
VERTEX
8
LITE
10
0
20
0
30
0
70
128
71
-144
72
177
73
145
0
VERTEX
8
LITE
10
0
20
0
30
0
70
128
71
145
72
177
73
-178
0
VERTEX
8
LITE
10
0
20
0
30
0
70
128
71
-145
72
178
73
146
0
VERTEX
8
LITE
10
0
20
0
30
0
70
128
71
146
72
178
73
-179
0
VERTEX
8
LITE
10
0
20
0
30
0
70
128
71
-146
72
179
73
147
0
VERTEX
8
LITE
10
0
20
0
30
0
70
128
71
147
72
179
73
-180
0
VERTEX
8
LITE
10
0
20
0
30
0
70
128
71
-147
72
180
73
148
0
VERTEX
8
LITE
10
0
20
0
30
0
70
128
71
148
72
180
73
-181
0
VERTEX
8
LITE
10
0
20
0
30
0
70
128
71
-148
72
181
73
149
0
VERTEX
8
LITE
10
0
20
0
30
0
70
128
71
149
72
181
73
-182
0
VERTEX
8
LITE
10
0
20
0
30
0
70
128
71
-149
72
182
73
150
0
VERTEX
8
LITE
10
0
20
0
30
0
70
128
71
150
72
182
73
-183
0
VERTEX
8
LITE
10
0
20
0
30
0
70
128
71
-150
72
183
73
151
0
VERTEX
8
LITE
10
0
20
0
30
0
70
128
71
151
72
183
73
-184
0
VERTEX
8
LITE
10
0
20
0
30
0
70
128
71
-151
72
184
73
152
0
VERTEX
8
LITE
10
0
20
0
30
0
70
128
71
152
72
184
73
-185
0
VERTEX
8
LITE
10
0
20
0
30
0
70
128
71
-152
72
185
73
153
0
VERTEX
8
LITE
10
0
20
0
30
0
70
128
71
153
72
185
73
-186
0
VERTEX
8
LITE
10
0
20
0
30
0
70
128
71
-153
72
186
73
154
0
VERTEX
8
LITE
10
0
20
0
30
0
70
128
71
154
72
186
73
-187
0
VERTEX
8
LITE
10
0
20
0
30
0
70
128
71
-154
72
187
73
155
0
VERTEX
8
LITE
10
0
20
0
30
0
70
128
71
155
72
187
73
-188
0
VERTEX
8
LITE
10
0
20
0
30
0
70
128
71
-155
72
188
73
156
0
VERTEX
8
LITE
10
0
20
0
30
0
70
128
71
156
72
188
73
-189
0
VERTEX
8
LITE
10
0
20
0
30
0
70
128
71
-156
72
189
73
157
0
VERTEX
8
LITE
10
0
20
0
30
0
70
128
71
157
72
189
73
-190
0
VERTEX
8
LITE
10
0
20
0
30
0
70
128
71
-157
72
190
73
158
0
VERTEX
8
LITE
10
0
20
0
30
0
70
128
71
158
72
190
73
-191
0
VERTEX
8
LITE
10
0
20
0
30
0
70
128
71
-158
72
191
73
159
0
VERTEX
8
LITE
10
0
20
0
30
0
70
128
71
159
72
191
73
-192
0
VERTEX
8
LITE
10
0
20
0
30
0
70
128
71
-159
72
192
73
160
0
VERTEX
8
LITE
10
0
20
0
30
0
70
128
71
160
72
192
73
-193
0
VERTEX
8
LITE
10
0
20
0
30
0
70
128
71
-160
72
193
73
161
0
VERTEX
8
LITE
10
0
20
0
30
0
70
128
71
161
72
193
73
-162
0
VERTEX
8
LITE
10
0
20
0
30
0
70
128
71
-161
72
162
73
130
0
VERTEX
8
LITE
10
0
20
0
30
0
70
128
71
162
72
194
73
-195
0
VERTEX
8
LITE
10
0
20
0
30
0
70
128
71
-162
72
195
73
163
0
VERTEX
8
LITE
10
0
20
0
30
0
70
128
71
163
72
195
73
-196
0
VERTEX
8
LITE
10
0
20
0
30
0
70
128
71
-163
72
196
73
164
0
VERTEX
8
LITE
10
0
20
0
30
0
70
128
71
164
72
196
73
-197
0
VERTEX
8
LITE
10
0
20
0
30
0
70
128
71
-164
72
197
73
165
0
VERTEX
8
LITE
10
0
20
0
30
0
70
128
71
165
72
197
73
-198
0
VERTEX
8
LITE
10
0
20
0
30
0
70
128
71
-165
72
198
73
166
0
VERTEX
8
LITE
10
0
20
0
30
0
70
128
71
166
72
198
73
-199
0
VERTEX
8
LITE
10
0
20
0
30
0
70
128
71
-166
72
199
73
167
0
VERTEX
8
LITE
10
0
20
0
30
0
70
128
71
167
72
199
73
-200
0
VERTEX
8
LITE
10
0
20
0
30
0
70
128
71
-167
72
200
73
168
0
VERTEX
8
LITE
10
0
20
0
30
0
70
128
71
168
72
200
73
-201
0
VERTEX
8
LITE
10
0
20
0
30
0
70
128
71
-168
72
201
73
169
0
VERTEX
8
LITE
10
0
20
0
30
0
70
128
71
169
72
201
73
-202
0
VERTEX
8
LITE
10
0
20
0
30
0
70
128
71
-169
72
202
73
170
0
VERTEX
8
LITE
10
0
20
0
30
0
70
128
71
170
72
202
73
-203
0
VERTEX
8
LITE
10
0
20
0
30
0
70
128
71
-170
72
203
73
171
0
VERTEX
8
LITE
10
0
20
0
30
0
70
128
71
171
72
203
73
-204
0
VERTEX
8
LITE
10
0
20
0
30
0
70
128
71
-171
72
204
73
172
0
VERTEX
8
LITE
10
0
20
0
30
0
70
128
71
172
72
204
73
-205
0
VERTEX
8
LITE
10
0
20
0
30
0
70
128
71
-172
72
205
73
173
0
VERTEX
8
LITE
10
0
20
0
30
0
70
128
71
173
72
205
73
-206
0
VERTEX
8
LITE
10
0
20
0
30
0
70
128
71
-173
72
206
73
174
0
VERTEX
8
LITE
10
0
20
0
30
0
70
128
71
174
72
206
73
-207
0
VERTEX
8
LITE
10
0
20
0
30
0
70
128
71
-174
72
207
73
175
0
VERTEX
8
LITE
10
0
20
0
30
0
70
128
71
175
72
207
73
-208
0
VERTEX
8
LITE
10
0
20
0
30
0
70
128
71
-175
72
208
73
176
0
VERTEX
8
LITE
10
0
20
0
30
0
70
128
71
176
72
208
73
-209
0
VERTEX
8
LITE
10
0
20
0
30
0
70
128
71
-176
72
209
73
177
0
VERTEX
8
LITE
10
0
20
0
30
0
70
128
71
177
72
209
73
-210
0
VERTEX
8
LITE
10
0
20
0
30
0
70
128
71
-177
72
210
73
178
0
VERTEX
8
LITE
10
0
20
0
30
0
70
128
71
178
72
210
73
-211
0
VERTEX
8
LITE
10
0
20
0
30
0
70
128
71
-178
72
211
73
179
0
VERTEX
8
LITE
10
0
20
0
30
0
70
128
71
179
72
211
73
-212
0
VERTEX
8
LITE
10
0
20
0
30
0
70
128
71
-179
72
212
73
180
0
VERTEX
8
LITE
10
0
20
0
30
0
70
128
71
180
72
212
73
-213
0
VERTEX
8
LITE
10
0
20
0
30
0
70
128
71
-180
72
213
73
181
0
VERTEX
8
LITE
10
0
20
0
30
0
70
128
71
181
72
213
73
-214
0
VERTEX
8
LITE
10
0
20
0
30
0
70
128
71
-181
72
214
73
182
0
VERTEX
8
LITE
10
0
20
0
30
0
70
128
71
182
72
214
73
-215
0
VERTEX
8
LITE
10
0
20
0
30
0
70
128
71
-182
72
215
73
183
0
VERTEX
8
LITE
10
0
20
0
30
0
70
128
71
183
72
215
73
-216
0
VERTEX
8
LITE
10
0
20
0
30
0
70
128
71
-183
72
216
73
184
0
VERTEX
8
LITE
10
0
20
0
30
0
70
128
71
184
72
216
73
-217
0
VERTEX
8
LITE
10
0
20
0
30
0
70
128
71
-184
72
217
73
185
0
VERTEX
8
LITE
10
0
20
0
30
0
70
128
71
185
72
217
73
-218
0
VERTEX
8
LITE
10
0
20
0
30
0
70
128
71
-185
72
218
73
186
0
VERTEX
8
LITE
10
0
20
0
30
0
70
128
71
186
72
218
73
-219
0
VERTEX
8
LITE
10
0
20
0
30
0
70
128
71
-186
72
219
73
187
0
VERTEX
8
LITE
10
0
20
0
30
0
70
128
71
187
72
219
73
-220
0
VERTEX
8
LITE
10
0
20
0
30
0
70
128
71
-187
72
220
73
188
0
VERTEX
8
LITE
10
0
20
0
30
0
70
128
71
188
72
220
73
-221
0
VERTEX
8
LITE
10
0
20
0
30
0
70
128
71
-188
72
221
73
189
0
VERTEX
8
LITE
10
0
20
0
30
0
70
128
71
189
72
221
73
-222
0
VERTEX
8
LITE
10
0
20
0
30
0
70
128
71
-189
72
222
73
190
0
VERTEX
8
LITE
10
0
20
0
30
0
70
128
71
190
72
222
73
-223
0
VERTEX
8
LITE
10
0
20
0
30
0
70
128
71
-190
72
223
73
191
0
VERTEX
8
LITE
10
0
20
0
30
0
70
128
71
191
72
223
73
-224
0
VERTEX
8
LITE
10
0
20
0
30
0
70
128
71
-191
72
224
73
192
0
VERTEX
8
LITE
10
0
20
0
30
0
70
128
71
192
72
224
73
-225
0
VERTEX
8
LITE
10
0
20
0
30
0
70
128
71
-192
72
225
73
193
0
VERTEX
8
LITE
10
0
20
0
30
0
70
128
71
193
72
225
73
-194
0
VERTEX
8
LITE
10
0
20
0
30
0
70
128
71
-193
72
194
73
162
0
VERTEX
8
LITE
10
0
20
0
30
0
70
128
71
194
72
226
73
-227
0
VERTEX
8
LITE
10
0
20
0
30
0
70
128
71
-194
72
227
73
195
0
VERTEX
8
LITE
10
0
20
0
30
0
70
128
71
195
72
227
73
-228
0
VERTEX
8
LITE
10
0
20
0
30
0
70
128
71
-195
72
228
73
196
0
VERTEX
8
LITE
10
0
20
0
30
0
70
128
71
196
72
228
73
-229
0
VERTEX
8
LITE
10
0
20
0
30
0
70
128
71
-196
72
229
73
197
0
VERTEX
8
LITE
10
0
20
0
30
0
70
128
71
197
72
229
73
-230
0
VERTEX
8
LITE
10
0
20
0
30
0
70
128
71
-197
72
230
73
198
0
VERTEX
8
LITE
10
0
20
0
30
0
70
128
71
198
72
230
73
-231
0
VERTEX
8
LITE
10
0
20
0
30
0
70
128
71
-198
72
231
73
199
0
VERTEX
8
LITE
10
0
20
0
30
0
70
128
71
199
72
231
73
-232
0
VERTEX
8
LITE
10
0
20
0
30
0
70
128
71
-199
72
232
73
200
0
VERTEX
8
LITE
10
0
20
0
30
0
70
128
71
200
72
232
73
-233
0
VERTEX
8
LITE
10
0
20
0
30
0
70
128
71
-200
72
233
73
201
0
VERTEX
8
LITE
10
0
20
0
30
0
70
128
71
201
72
233
73
-234
0
VERTEX
8
LITE
10
0
20
0
30
0
70
128
71
-201
72
234
73
202
0
VERTEX
8
LITE
10
0
20
0
30
0
70
128
71
202
72
234
73
-235
0
VERTEX
8
LITE
10
0
20
0
30
0
70
128
71
-202
72
235
73
203
0
VERTEX
8
LITE
10
0
20
0
30
0
70
128
71
203
72
235
73
-236
0
VERTEX
8
LITE
10
0
20
0
30
0
70
128
71
-203
72
236
73
204
0
VERTEX
8
LITE
10
0
20
0
30
0
70
128
71
204
72
236
73
-237
0
VERTEX
8
LITE
10
0
20
0
30
0
70
128
71
-204
72
237
73
205
0
VERTEX
8
LITE
10
0
20
0
30
0
70
128
71
205
72
237
73
-238
0
VERTEX
8
LITE
10
0
20
0
30
0
70
128
71
-205
72
238
73
206
0
VERTEX
8
LITE
10
0
20
0
30
0
70
128
71
206
72
238
73
-239
0
VERTEX
8
LITE
10
0
20
0
30
0
70
128
71
-206
72
239
73
207
0
VERTEX
8
LITE
10
0
20
0
30
0
70
128
71
207
72
239
73
-240
0
VERTEX
8
LITE
10
0
20
0
30
0
70
128
71
-207
72
240
73
208
0
VERTEX
8
LITE
10
0
20
0
30
0
70
128
71
208
72
240
73
-241
0
VERTEX
8
LITE
10
0
20
0
30
0
70
128
71
-208
72
241
73
209
0
VERTEX
8
LITE
10
0
20
0
30
0
70
128
71
209
72
241
73
-242
0
VERTEX
8
LITE
10
0
20
0
30
0
70
128
71
-209
72
242
73
210
0
VERTEX
8
LITE
10
0
20
0
30
0
70
128
71
210
72
242
73
-243
0
VERTEX
8
LITE
10
0
20
0
30
0
70
128
71
-210
72
243
73
211
0
VERTEX
8
LITE
10
0
20
0
30
0
70
128
71
211
72
243
73
-244
0
VERTEX
8
LITE
10
0
20
0
30
0
70
128
71
-211
72
244
73
212
0
VERTEX
8
LITE
10
0
20
0
30
0
70
128
71
212
72
244
73
-245
0
VERTEX
8
LITE
10
0
20
0
30
0
70
128
71
-212
72
245
73
213
0
VERTEX
8
LITE
10
0
20
0
30
0
70
128
71
213
72
245
73
-246
0
VERTEX
8
LITE
10
0
20
0
30
0
70
128
71
-213
72
246
73
214
0
VERTEX
8
LITE
10
0
20
0
30
0
70
128
71
214
72
246
73
-247
0
VERTEX
8
LITE
10
0
20
0
30
0
70
128
71
-214
72
247
73
215
0
VERTEX
8
LITE
10
0
20
0
30
0
70
128
71
215
72
247
73
-248
0
VERTEX
8
LITE
10
0
20
0
30
0
70
128
71
-215
72
248
73
216
0
VERTEX
8
LITE
10
0
20
0
30
0
70
128
71
216
72
248
73
-249
0
VERTEX
8
LITE
10
0
20
0
30
0
70
128
71
-216
72
249
73
217
0
VERTEX
8
LITE
10
0
20
0
30
0
70
128
71
217
72
249
73
-250
0
VERTEX
8
LITE
10
0
20
0
30
0
70
128
71
-217
72
250
73
218
0
VERTEX
8
LITE
10
0
20
0
30
0
70
128
71
218
72
250
73
-251
0
VERTEX
8
LITE
10
0
20
0
30
0
70
128
71
-218
72
251
73
219
0
VERTEX
8
LITE
10
0
20
0
30
0
70
128
71
219
72
251
73
-252
0
VERTEX
8
LITE
10
0
20
0
30
0
70
128
71
-219
72
252
73
220
0
VERTEX
8
LITE
10
0
20
0
30
0
70
128
71
220
72
252
73
-253
0
VERTEX
8
LITE
10
0
20
0
30
0
70
128
71
-220
72
253
73
221
0
VERTEX
8
LITE
10
0
20
0
30
0
70
128
71
221
72
253
73
-254
0
VERTEX
8
LITE
10
0
20
0
30
0
70
128
71
-221
72
254
73
222
0
VERTEX
8
LITE
10
0
20
0
30
0
70
128
71
222
72
254
73
-255
0
VERTEX
8
LITE
10
0
20
0
30
0
70
128
71
-222
72
255
73
223
0
VERTEX
8
LITE
10
0
20
0
30
0
70
128
71
223
72
255
73
-256
0
VERTEX
8
LITE
10
0
20
0
30
0
70
128
71
-223
72
256
73
224
0
VERTEX
8
LITE
10
0
20
0
30
0
70
128
71
224
72
256
73
-257
0
VERTEX
8
LITE
10
0
20
0
30
0
70
128
71
-224
72
257
73
225
0
VERTEX
8
LITE
10
0
20
0
30
0
70
128
71
225
72
257
73
-226
0
VERTEX
8
LITE
10
0
20
0
30
0
70
128
71
-225
72
226
73
194
0
SEQEND
8
LITE
0
ENDSEC
0
EOF
